Song name
# A B C D E F G H I J K L M N O P Q R S T U V W X Y Z

Cocorosie - South 2nd tab

Never made a tab before, but I felt I should make one since the way I play this song 
sounds more accurate than what I've found on the internet.


e--------0---------0-------0---------0---------0----------0---------0-------|
b--------3---------3-------3---------2---------2----------2---------3-------|
g-----4----4-----4---4---4---4-----4---4-----4---4------4---4-----4---4-----|
d---2----------2-------0--------4--------------------4----------4-----------|
a------------------------------------------4--------------------------------|
e---------------------------------------------------------------------------|

e--------0--0---------|
b--------2--3---------|
g-----4---------------|
d---4-----------------|
a---------------------|
e---------------------|

Let me know what you guys think...

Cheers!

-Gabriel Shea
Tap to rate this tab
# A B C D E F G H I J K L M N O P Q R S T U V W X Y Z