Song name
# A B C D E F G H I J K L M N O P Q R S T U V W X Y Z

Cocorosie - Madonna tab

----------------------------------------------------------------------------
			     Madonna by CocoRosie
----------------------------------------------------------------------------

Tabbed by: Jenna
Email: exitmusicsr@aol.com

Tuning: standard

This riff is the entire song, just keep repeating it until the end. Listen to the song
for the timing. The notes in parentheses are quick transitional notes not meant to be
played that loud. A simple yet effective acoustic song to perform by yourself; knock
yourselves out, kids.


e |--------------4--------------4--------------2----------------2------|
B |--------(5)---5--------(5)---5--------(4)---4----------(4)---4------|
G |----6--------------6--------------4----------------4----------------|
D |--------------------------------------------------------------------|
A |--------------------------------------------------------------------|
E |--------------------------------------------------------------------|


e |---------------0--------------0---------------0-------------------------|
B |---------(2)---2--------(2)---2---------(2)---2-----------2--------5----|
G |-----2--------------2----------------2---------------2--------4---------|
D |------------------------------------------------------------------------|
A |------------------------------------------------------------------------|
E |------------------------------------------------------------------------|
Tap to rate this tab
# A B C D E F G H I J K L M N O P Q R S T U V W X Y Z