Song name
# A B C D E F G H I J K L M N O P Q R S T U V W X Y Z

Cocorosie - Terrible Angels tab

offisial website: http://www.tgrec.com/bands/band.php?id=8

Terrible Angels
Coco Rosie
tabbed by torbjψrn nymo (metonymo @ mail . ru)

G (capo, 4th)

  G           /f#  Em              Am              C
|--------------------------------------------------------------------|
|--------------------------------------1-------1-------1-------1-----|
|-----0-----0---0-----0-------0------2---2---2---2---0---0---0---0---|
|---0---0---0---0---2---2---2---2----------2---------------2---------|
|-------------------------2--------0---------------3-----------------|
|-3-------3---2---0--------------------------------------------------|
  :   ‘   ‘   ‘   :   ‘   ‘   ‘    :   ‘   ‘   ‘   :   ‘   ‘   ‘


or


C

  C           /h   Am              Dm              F
|--------------------------------------1-------1-------1-------1-----|
|-----1-----1---1-----1-------1------3---3---3---3---1---1---1---1---|
|---0---0---0---0---2---2---2---2----------2---------------2---------|
|-------------------------2--------0---------------3-----------------|
|-3-------3---2---0--------------------------------------------------|
|--------------------------------------------------------------------|
  :   ‘   ‘   ‘   :   ‘   ‘   ‘    :   ‘   ‘   ‘   :   ‘   ‘   ‘

   G                  /f#
   If every angel's terrible
   Em                          Am    C
   Then why do you welcome them ...

   ref. x2

If every angel's terrible
Then why do you welcome them, you said
you'd provide the birdbath, if
I provide the skin

And bathing in the moonlight
I'm to tremble like a kitten
...

G /f# Em Am C

If blue eyed babes
Raised as Hitler's little brides and sons
They got angelic tendencies
Like some boys tend to act like queens

Oh, if every angel's terrible
Then why do you watch her sleep
You love to hear her sing
And wear purple eyes like rings

Well, the flowers have no scent
And the child's been miscarried
...

G /f# Em Am C

   ref. x2

If every angel's terrible
Then why do you welcome them, you said
you'd provide the birdbath, if
I provide the skin


And bathing in the moonlight
I'm to tremble like a kitten
...

G /f# Em Am C

Oh, every angel's terrible
Said Freud and Rilke all the same
Rimbaud never paid them no mind
But Jimmi Morrison had his elevators

...His elevators
He had his elevator angels...

And, if every angels terrible
Why do you hide inside her
Like a child in a skirt
The supermarket's loud and bright

And boy, don't she feel warm tonight
Boy, don't she feel warm tonight
...

Boy, don't she feel warm tonight
(..she’s so pregnant...she...)

   ref.x2

If every angel's terrible
Then why do you welcome them, you said
you'd provide the birdbath
If I provide the skin

She’s so little like an angel
when she cryes (she cries)


********
(strumming)
Terrible Angels
in G: G /f# Em Am C

G     320003
/f#   20xxxx
Em    022000
Am    x02210
C     x32010

  G     f#    Em
--3--------------0--|
--0--------------0--|
--0--------------0--|
--0--0--------2--2--|
--2--2-----0--2--2--|
--3--3--2--2--0--0--|


in C:  C /h Am Dm F

C     x32010
/h    x22xxx
Am    x02210
Dm    xx0231
F     xx3211


  C     h   Am
--0-----------0--|
--1-----------1--|
--0-----------2--|
--2--2-----2--2--|
--3--3--2--2--0--|
-----------------|
Tap to rate this tab
# A B C D E F G H I J K L M N O P Q R S T U V W X Y Z