Guitaretab - guitar tabs
Song name
# A B C D E F G H I J K L M N O P Q R S T U V W X Y Z

Cocorosie - By Your Side Acoustic tab

---------------------------------------------------------------
--                artiste: cocorosie                        --
--                chanson: by your side (acoustic)          --
--                Album: La Maison De Mon Rve               --
--                tablature par: bomboutch                   --
---------------------------------------------------------------

 capo 3me case:

couplet/refrain

     do          mi        la

 e)----0-----0-----0-----0----0----0----0---0---0|
 B)----1-----0-----0-----0/1--1----1----1---1---0|
 G)----------------------------------------------|
 D)---------2----------2----------2-2------------|
 A)--3----3----0-2---2------0---0-----0---0---2--|
 E)----------------------------------------------|


 do          mi         la
 I'll always be by your side
 Even when you're down and out
 I'll always be by your side
 Even when you're down and out
 I just wanted to be your housewife
 All i wanted was to be your housewife
 I'll iron your clothes
 I'll shine your shoes
 I'll make your bed
 And cook your food
 I'll never cheat
 I'll be the best girl you'll ever meet
 And for a diamond ring
 I'll do these kinds of things

bridge
[ Tab from: http://www.guitaretab.com/c/cocorosie/90920.html ]
  do       mi        sol  sol/#fa/mi        do  do/si/la     mi     la...

 ..--0----0-----0-----O----3--3-3--0----0------0--0-0-0---0----0--0----0-..
 ..--1----0-----0-----O----0--0-0--0----0------1--1-1-1---1----0--0/1--1-..
 ..----------------------------------------------------------------------..
 ..------2----------2------------------------------------2-------2-------..
 ..3---3----0-2---2----2---------------2-2-0-3---3-2-0--0--0-2--2----0---..
 ..----------------------3---3-2-0---0-----------------------------------..

 do             mi
 And its nearly midnight
           sol   sol/#fa/mi
 And all i want with my life
       do do/si/la
 Is to be a housewife
        mi      la
 Is to die a housewife

-------------------------------------------------------------------------
 I'll scrub your floor
 Never be a bore
 I'll tuck you in
 I do not snore
 I'd wear your black eyes
 Bake you apple pies
 I don't ask why
 And i trys not to crys
 I'll always be by your side
 Even when you're down and out
 Lyrics
 I'll always be by your side
 Even when you're down and out
 And its nearly midnight
 And all i want with my life
 Is to be a housewife
 Is to be a housewife
 'Cause it's nearly midnight
 And all i want with my life
 Is to die a housewife
 Is to die a housewife

 bomboutch_nbbgt@hotmail.com
Related for By Your Side Acoustic tab