Song name
# A B C D E F G H I J K L M N O P Q R S T U V W X Y Z

Cocorosie - Tekno Love Song tab

This is the part the harp plays

Intro
E|-------6-------6-------1-------1-------4-------4-------3-------3----------|
B|-----8---8---8---8---3---3---3---3---6---6---6---6---4---4---4---4--------|
G|---8-------8-------3-------3-------5-------5-------5-------5--------------|
D|--------------------------------------------------------------------------|
A|--------------------------------------------------------------------------|
e|--------------------------------------------------------------------------|
(repeat)

As she starts singing every part gets played 4 times instead of 2:
E|-------6-------6-------6-------6-------1-------1-------1-------1----------|
B|-----8---8---8---8---8---8---8---8---3---3---3---3---3---3---3---3--------|
G|---8-------8-------8-------8-------3-------3-------3-------3--------------|
D|--------------------------------------------------------------------------|
A|--------------------------------------------------------------------------|
e|--------------------------------------------------------------------------|
etc.

The melody played over it:
E|-----------------1---1-------------------1---1----------------------------|
B|---4---4-3---3-4-------4---4---4-3---3-4-------4--------------------------|
G|--------------------------------------------------------------------------|
D|--------------------------------------------------------------------------|
A|--------------------------------------------------------------------------|
e|--------------------------------------------------------------------------|

E|-----1-3-(6)---3-1---1-3-4-(8)---4-3---3-1---(6)-------------1-(8)---1----|
B|---4---------------------------------------4-------4-3---3-4-----------4--|
G|--------------------------------------------------------------------------|
D|--------------------------------------------------------------------------|
A|--------------------------------------------------------------------------|
e|--------------------------------------------------------------------------|
Tap to rate this tab
# A B C D E F G H I J K L M N O P Q R S T U V W X Y Z