Song name
# A B C D E F G H I J K L M N O P Q R S T U V W X Y Z

Cocteau Twins - Loves Easy Tears tab

Help us improve GuitareTab! Take a short survey!
                                LOVE’S EASY TEARS
                          As recorded by Cocteau Twins
            (From the 2006 Album LULLABIES TO VIOLAINE (VOLUME ONE))

Transcribed by Corey Hunter - www.youtube.com/twinofcocteau


Intro
   4/4
    Gtr I
    E E  E E +E   E Q    +E  E  E E +E   E Q
||---------9-(9)-------|----------9-(9)-------|
||o-----10-------10----|-------10-------10----|
||----0-------------0--|-(0)-0-------------0--|
||---------------------|----------------------|
||o--------------------|----------------------|
||---------------------|----------------------|


  +E  E  E E +E   E Q    +E  E  E E +E   E Q
|----------9-(9)-------|----------9-(9)--------||
|-------10-------10----|-------10-------10----o||
|-(0)-0-------------0--|-(0)-0-------------0---||
|----------------------|-----------------------||
|----------------------|----------------------o||
|----------------------|-----------------------||


 Verse
  E E  E E +E   E Q    +E  E  E E +E   E Q
|--------9-(9)-------|----------9-(9)-------|
|-----10-------10----|-------10-------10----|
|---0-------------0--|-(0)-0-------------0--|
|--------------------|----------------------|
|--------------------|----------------------|
|--------------------|----------------------|


  +E  E  E E +E   E Q    +E  E  E E +E   E Q
|----------9-(9)-------|----------9-(9)-------|
|-------10-------10----|-------10-------10----|
|-(0)-0-------------0--|-(0)-0-------------0--|
|----------------------|----------------------|
|----------------------|----------------------|
|----------------------|----------------------|


  +E  E  E E +E   E Q    +E  E  E E +E   E Q
|----------9-(9)-------|----------9-(9)-------|
|-------10-------10----|-------10-------10----|
|-(0)-0-------------0--|-(0)-0-------------0--|
|----------------------|----------------------|
|----------------------|----------------------|
|----------------------|----------------------|


  +E  E  E E +E   E Q    +E  E  E E +E   E  E  E
|----------9-(9)-------|----------9-(9)----12-12-||
|-------10-------10----|-------10-------10-14-14-||
|-(0)-0-------------0--|-(0)-0-------------------||
|----------------------|-------------------------||
|----------------------|-------------------------||
|----------------------|-------------------------||


   Chorus
     Q    E  E  Q    E  E    +H.       E  E
||--12\--10-10-10\---9--9-|--(9)------12-12-|
||o-14\--12-12-12\--10-10-|-(10)------14-14-|
||------------------------|-----------------|
||------------------------|-----------------|
||o-----------------------|-----------------|
||------------------------|-----------------|


   Q    E  E  Q   E E   +H.       E  E   3x
|-12\--10-10-10\--5-5-|-(5)------12-12---||
|-14\--12-12-12\--7-7-|-(7)------14-14--o||
|---------------------|------------------||
|---------------------|------------------||
|---------------------|-----------------o||
|---------------------|------------------||


   Q    E  E  Q    E  E    +H.       E  E    Q    E  E  Q   E E   +W
|-12\--10-10-10\---9--9-|--(9)------12-12-|-12\--10-10-10\--5-5-|-(5)----||
|-14\--12-12-12\--10-10-|-(10)------14-14-|-14\--12-12-12\--7-7-|-(7)----||
|-----------------------|-----------------|---------------------|--------||
|-----------------------|-----------------|---------------------|--------||
|-----------------------|-----------------|---------------------|--------||
|-----------------------|-----------------|---------------------|--------||

Duration Legend
---------------
W - whole; H - half; Q - quarter; E - 8th; 
+ - note tied to previous; . - note dotted; .. - note double dotted
Uncapitalized letters represent notes that are staccato (1/2 duration)
Irregular groupings are notated above the duration line
Duration letters will always appear directly above the note/fret number it represents the
duration for.  Duration letters with no fret number below them represent rests.  Multi-
bar rests are notated in the form Wxn, where n is the number of bars to rest for.  
Related for Loves Easy Tears tab