Song name
# A B C D E F G H I J K L M N O P Q R S T U V W X Y Z

Cocteau Twins - Tresure Hiding tab

Cocteau Twins - Tresure Hiding
From the album:    Milk & Kisses 
Words/Music: Cocteau Twins

Tabs:    Marcus H. Pedersen
Added To UG By Mikhailo

Another great song from M&K

 

Soft part: (Chorus guitar with lots of delay)

Chords: C (8 fret) - F (8 fret) - G - (7 fret)

Repeat those chords throughout the intro............

 

Loud part: F - G - Em - F

 

Guitar solo: (With distortion, delay and lots of chorus) 

e ----------------------------------------------------------
B -5-----------(5--12)--13--12------------------------------
G ---------------------------------12--12-------------------
D ------------------------------------------------12--14----
A ----------------------------------------------------------

e --------------------------------------------------15-
B --------------------------------15--15---------------
G ------------------------12---------------------------
D -----------------------------------------------------
A ----12----(12--10)-----------------------------------
E -----------------------------------------------------

e -----------------15--------------15--------------15------------15--------(15--17)-
B ----------13---------------13-------------13------------13----------13------------
G ---14----------------14-------------14------------14------------------------------
D ----------------------------------------------------------------------------------
A ----------------------------------------------------------------------------------
E ----------------------------------------------------------------------------------
Tap to rate this tab
# A B C D E F G H I J K L M N O P Q R S T U V W X Y Z