Song name
# A B C D E F G H I J K L M N O P Q R S T U V W X Y Z

Cocteau Twins - Sugar Hiccup tab

Sugar Hiccup
Head Over Heels
Cocteau Twins

Incredibly nice song...
~~~~~~~~~~~
Normal tunning
effect :Flanger + Chorus + Reverb

----9--------9-----------------------------------------|
------10--------10-------------------------------------|
---------11---------11--11--12---11-12-11--------------|
-------------------------------------------------------|X4
-------------------------------------------------------|
-------------------------------------------------------|

time : 20''
------14--------14---------14----------14-------------|
---------14--------14---------14----------14----------|
---14---------14--------14----------14----------------|X2
------------------------------------------------------|
------------------------------------------------------|
------------------------------------------------------|

play verse 
----9--------------------------------------------------|
------10--------------------10------10-----------------|
---------11-11-12-11----11------11-----11-12-11--------|X8
----------------------9--------------------------------|
-------------------------------------------------------|
-------------------------------------------------------|

until  time: 1'
---10-----------10---------10--------10----------------|
------10-----------10---------10--------10-------------|
----------12----------12---------12-------12-----------|x4
-------------------------------------------------------|
-------------------------------------------------------|
-------------------------------------------------------|

time: 1'20''
----9--------------------------------------------------|
------10--------------------10------10-----------------|
---------11-11-12-11----11------11-----11-12-11--------|X4
----------------------9--------------------------------|
-------------------------------------------------------|
-------------------------------------------------------|

time:1'54
---10-----------10---------10--------10----------------|
------10-----------10---------10--------10-------------|
----------12----------12---------12-------12-----------|x4
-------------------------------------------------------|
-------------------------------------------------------|
-------------------------------------------------------|

time: 2'30
---10-----------10---------10--------10----------------|
------13-----------13---------13--------13-------------|
----------12----------12---------12-------12-----------|x4
-------------------------------------------------------|
-------------------------------------------------------|
-------------------------------------------------------|


----9--------9------------------------------------------|
------10--------10--------------------------------------|
---------11---------11--11--12---11-12-11--------------|
-------------------------------------------------------|X4
-------------------------------------------------------|
-------------------------------------------------------|


----9--------------------------------------------------|
------10--------------------10------10-----------------|
---------11-11-12-11----11------11-----11-12-11--------|X4
----------------------9--------------------------------|
-------------------------------------------------------|
-------------------------------------------------------|


time: 3'03
------14--------14---------14----------14-------------|
---------14--------14---------14----------14----------|
---14---------14--------14----------14----------------|X2
------------------------------------------------------|
------------------------------------------------------|
------------------------------------------------------|



time 3'30 ending
----9--------------------------------------------------|
------10--------------------10------10-----------------|
---------11-11-12-11----11------11-----11-12-11--------|X4
----------------------9--------------------------------|
-------------------------------------------------------|
-------------------------------------------------------|
Tap to rate this tab
 
# A B C D E F G H I J K L M N O P Q R S T U V W X Y Z