Song name
# A B C D E F G H I J K L M N O P Q R S T U V W X Y Z

Code Orange Kids - Nothing The Rat tab

http://codeorangekids.bandcamp.com/ 
http://topshelfrecords.com/tsr2/_pages/artist_code_orange_kids.php

d|----------------------------|
A|----------------------------|
F|--3-----3-----3-------------| 
C|--3-----3-----3-------------| x 12
G|----2-2---2-2---2-1-2-4-5---|
C|----2-2---2-2---2-1-2-4-5---|

d|----------------------------------------------------------------------|
A|----------------------------------------------------------------------|
F|-------------3--p0-------3p0-----3-------------3---p0-----3-----3p0---|
C|-----------------------------2h4----------------------2p4---2p4-----4-|
G|-2-2-2-2-2---------2-2-2-----------2-2-2-2-2-2------------------------|
C|-2-2-2-2-2---------2-2-2-----------2-2-2-2-2-2------------------------|
        
d|---------------------------------------------------------------------|
A|---------------------------------------------------------------------|
F|-------------<3>-p0-------3p0-----3-----------3---p0-----------------|
C|------------------------------2h4------------------------------------|
G|-2-2-2-2-2----------2-2-2-----------2-2-2-2-2--------2-4-8-2-4-8-5-4-|
C|-2-2-2-2-2----------2-2-2-----------2-2-2-2-2--------2-4-8-2-4-8-5-4-|

d|---------------------------------------------------------------|
A|---------------------------------------------------------------|
F|-------------------------------------------------3----3----3---| 
C|-------------------------------------------------3----3----3---| x 2
G|-2---2-2-2-4-5-2-2-2-2-8-5-2-4-8-2---2-2-2-4-5-2--2222-2222--2-|
C|-2---2-2-2-4-5-2-2-2-2-8-5-2-4-8-2---2-2-2-4-5-2--2222-2222--2-|
       * * *          * * *               * * *
d|---------------------------------------------------------------------|
A|---------------------------------------------------------------------|
F|--------------3--p0-------3p0-----3-----------3---p0-----------------|
C|------------------------------2h4------------------------------------| x 2
G|-2-2-2-2-2----------2-2-2-----------2-2-2-2-2--------2-4-8-2-4-8-5-4-|
C|-2-2-2-2-2----------2-2-2-----------2-2-2-2-2--------2-4-8-2-4-8-5-4-|

d|-----------------------------------|
A|------------0----------------------|
F|------------3b4--------------7b8---|
C|-----------------------------------| x 4
G|-2---2------------2---2------------|
C|-2---2------------2---2------------|

d|----------------------------|
A|----------------------------|
F|--3-----3-----3-------------|
C|--3-----3-----3-------------| x 6
G|----2-2---2-2---2-1-2-4-5---|
C|----2-2---2-2---2-1-2-4-5---|
Tap to rate this tab
# A B C D E F G H I J K L M N O P Q R S T U V W X Y Z