Song name
# A B C D E F G H I J K L M N O P Q R S T U V W X Y Z

Codeine Velvet Club - Little Sister tab

-------------------------------------------------------------------------------
			     Little Sister - Codeine Velvet Club
-------------------------------------------------------------------------------
Tabbed by: Jazi


Tuning: Standard

e|-----------------------------------------|
B|-----------------------------------------|
G|------------------------------8--10------|
D|-10-10-----8-10-8-10---10-10--8--10--10--|
A|-10-10-----8-10-8-10---10-10--6--8---10--|
E|-8--8------6-8--6-8----8--8----------8---|

That's the main riff.
Tap to rate this tab
# A B C D E F G H I J K L M N O P Q R S T U V W X Y Z