Song name
# A B C D E F G H I J K L M N O P Q R S T U V W X Y Z

Codeine - Pickup Song tab

intro

e--0--------------0------------0------------0---0-----|
B----1--------------1------------1--------------1-----|
G---------------------------------------------2-2-----|
D------3----0-2-------3----0-2-----3----0-2-----3-----|
A-----------------------------------------------------|
E-----------------------------------------------------|


song

    G    Fmaj7
e---3------0------|
B---3------1------|
G---4------2------|
D---5------3------|
A-----------------|
E-----------------|

the distorted slide part goes something like this

e----------------------------------------------------------|
B----------------------------------------------------------|
G----------------------------------------------------------|
D----------------------------------------------------------|
A----------------------------------------------------------|
E-----3----------3s5---3-----3s5---1-------------12--------|


e----------------------------------------------------------------|
B----------------------------------------------------------------|
G----------------------------------------------------------------|
D----------------------------------------------------------------|
A----------------------------------------------------------------|
E-----3----------3s5---3-----3s5---1-------------12---10-----15--|

you can work out the timing


Don't remember your kiss
Can't remember what I miss

Thought you were blind, I held your hand
Guess I still don't understand

Wish I'd never seen your face
Tap to rate this tab
 
# A B C D E F G H I J K L M N O P Q R S T U V W X Y Z