Song name
# A B C D E F G H I J K L M N O P Q R S T U V W X Y Z

Codeine - Cave In tab

e------------------------------------------------|
B------------------------------------0-----------|
G----------0--------------------0-------0--------|
D-------4-------4------------4-------------4-----|
A--5---------------5----5------------------------|
E------------------------------------------------|


e------------------------------------0-----------|
B------------------------------------------------|
G----------0--------------------0-------0--------|
D-------4-------4------------4-------------4-----|
A--5---------------5----5------------------------|
E------------------------------------------------|


chorus
em C am C

Last night I dreamt your face
The skin was falling off
The flesh was turning grey

This is a cave in
I said I'd stay

Cave in
Said I'd stay

Last I had a dream
Your eyes were lit by fire
The way you tried to smile
The way you couldn't smile

This is a cave in
I said I'd stay

Cave in
Said I'd stay

These things take so long
So let me help it some
These things take so long
So let me help it some
Tap to rate this tab
# A B C D E F G H I J K L M N O P Q R S T U V W X Y Z