Song name
# A B C D E F G H I J K L M N O P Q R S T U V W X Y Z

Codeine - Loss Leader tab

Codeine - Loss Leader
tuning: standard

e|---------------3-----|
B|-2-------------0-----|
G|---------0-0-0-0-----|
D|-----2-2-2-2-2-0-----|  intro x2
A|-----3-3-3-3-3-0-----|
E|-----2-2-2-2-2-5-----|

Loss leader, losing sight of the shore
e|-7-------7-------7-7-------7-------7-------------------------------|
B|---------------------------------------5-------5-------5-4---------|
G|-----7-------7---------7-------7-----------7-------7---------7-----|
D|-----7-------7---------7-------7-----------7-------7---------7-----|
A|-----7-------7---------7-------7-----------7-------7---------7-----|
E|-------------------------------------------------------------------|

Chorus:
G Em Fm# A

something like that.
in B minor.
Tap to rate this tab
# A B C D E F G H I J K L M N O P Q R S T U V W X Y Z