Cody Simpson - Love So Strong tab

Tabbed by ear from Cody's performance on Elvis Duran. Youtube the song to hear how to play it.

                 C                                   Em
e|-----------------------------------|---------------------------------|
B|--------1-----1---1-----1-----1----|--------0-----0---0----0----0----|
G|------0---0-----0---0-----0-----0--|------0---0-----0---0----0----0--|
D|----2-------2----------2----2------|----2-------2---------2----2-----|
A|--3--------------------------------|--2------------------------------|
E|-----------------------------------|---------------------------------|


                  Am                                   F
e|-----------------------------------|---------------------------------|
B|--------1-----1---1-----1-----1----|---------------------------------|
G|------2---2-----2---2-----2-----2--|--------2-----2---2----2----2----|
D|----2-------2----------2----2------|------3---3-----3---3----3----3--|
A|--0--------------------------------|----3-------3---------3----3-----|
E|-----------------------------------|--1------------------------------|
Tap to rate this tab
 
# A B C D E F G H I J K L M N O P Q R S T U V W X Y Z