Song name
# A B C D E F G H I J K L M N O P Q R S T U V W X Y Z

Cody Simpson - Awake All Night tab

Twitter: @lauranewhouses
  

 E        B        D       A            (BAR CHORDS)
|------7-|------7-|------5-|------5-|-
|--9---9-|--7---7-|--7---7-|--5---7-|-    He also play this in the intro
|--9-----|--8-----|--7-----|--6-----|-    with another riff on top 
|----9---|----9---|----7---|----7---|-    (I'll post it when I figure it out)
|--7-----|--9-----|--5-----|--7-----|-
|--------|--------|--------|--------|-    REPEAT THIS

It's 2:15 in the morning and I'm still thinking 'bout ya baby 
I'm so vividly yawning, but I'm still thinking 'bout ya baby 
Heaven I'm above this word on every bit of ya baby 
I think that I'm in love with every single bit you baby 
I don't know if I'll fall asleep tonight 
'Cause you won't, just get off my mind

 E                    B                D                 A  *
Instead of counting sheep I count the stars within your eyes 
E                  B                  D              A
I wish that I could sleep but the stars are way too bright 
E                 B                 D                  A 
It's all about you with or without you if it wasn't I'd be fine 
E                B               D            A
But the thing is everything is and I'll be awake all night 




   E        B        D       A            (BAR CHORDS)
|------7-|------7-|------5-|------5-|-
|--9---9-|--7---7-|--7---7-|--5---7-|-
|--9-----|--8-----|--7-----|--6-----|-     REPEAT THIS
|----9---|----9---|----7---|----7---|-
|--7-----|--9-----|--5-----|--7-----|-
|--------|--------|--------|--------|-

It's 4:15 in the morning and it's still the same old story baby 
Staring at the roof for hours but I really don't find it boring baby 
Painting my feelings on the ceiling and it's always just a portrait of you 
My dreams are a box of chocolates then they're the great assortments of you 
'Cause I don't know if I'll fall asleep tonight 
'Cause you won't, just get off my mind 

 E                    B                D                 A  *
Instead of counting sheep I count the stars within your eyes 
E                  B                  D              A
I wish that I could sleep but the stars are way too bright 
E                 B                 D                  A 
It's all about you with or without you if it wasn't Id be fine 
E                B               D            A
But the thing is everything is and I'll be awake all night 


   E        B        D       A            (BAR CHORDS)
|------7-|------7-|------5-|------5-|-     SAME AS INTRO WITH THE OTHER RIFF
|--9---9-|--7---7-|--7---7-|--5---7-|-
|--9-----|--8-----|--7-----|--6-----|-     REPEAT THIS
|----9---|----9---|----7---|----7---|-
|--7-----|--9-----|--5-----|--7-----|-
|--------|--------|--------|--------|-

And I'll be awake all night
And I'll be awake all night

*They're all bar chords. The strumming is pretty easy, just listen to the song.
Tap to rate this tab
# A B C D E F G H I J K L M N O P Q R S T U V W X Y Z