Song name
# A B C D E F G H I J K L M N O P Q R S T U V W X Y Z

Cody Simpson - Awake All Night tab

Artist: Cody Simpson
Song: Awake All Night

Chords Used:
F          C        D#       Bb          
|--8------|--8-----|--6-----|--6-----|-
|--10-----|--8-----|--8-----|--6-----|-
|--10-----|--9-----|--8-----|--7-----|-
|--10-----|--10----|--8-----|--8-----|-
|--8------|--10----|--6-----|--8-----|-
|--x------|--8-----|--x-----|--6-----|-

You can either use a pick or finger pick the riffs.

 F          C        D#       Bb          
|-------8--|------8-|------6-|------6-|-
|--10---10-|--8---8-|--8---8-|--6---8-|-
|--10------|--9-----|--8-----|--7-----|-
|-----10---|----10--|----8---|----8---|-
|--8-------|--10----|--6-----|--8-----|-
|----------|--------|--------|--------|-

It's 2:15 in the morning and I'm still thinking 'bout ya baby 
I'm so vividly yawning, but I'm still thinking 'bout ya baby 
Heaven I'm above this word on every bit of ya baby 
I think that I'm in love with every single bit you baby 
I don't know if I'll fall asleep tonight 
'Cause you won't, just get off my mind

Strumming:

F                   C                D#                 Bb
Instead of counting sheep I count the stars within your eyes 
F                  C                  D#             Bb
I wish that I could sleep but the stars are way too bright 
F                 C                 D#                 Bb
It's all about you with or without you if it wasn't I'd be fine 
F                C               D#            Bb
But the thing is everything is and I'll be awake all night 

   F        C        D#      Bb           
|------8-|------8-|------7-|------7-|-
|--10--10|--8---8-|--8---8-|--7---8-|-
|--10----|--9-----|--8-----|--7-----|-   
|----10--|----10--|----8---|----8---|-
|--8-----|--10----|--7-----|--8-----|-
|--------|--------|--------|--------|-

It's 4:15 in the morning and it's still the same old story baby 
Staring at the roof for hours but I really don't find it boring baby 
Painting my feelings on the ceiling and it's always just a portrait of you 
My dreams are a box of chocolates then they're the great assortments of you 
'Cause I don't know if I'll fall asleep tonight 
'Cause you won't, just get off my mind 

Strum:
 F                    C                D#                Bb
Instead of counting sheep I count the stars within your eyes 
F                  C                  D#             Bb
I wish that I could sleep but the stars are way too bright 
F                 C                 D#                 Bb 
It's all about you with or without you if it wasn't Id be fine 
F                C               D#           Bb
But the thing is everything is and I'll be awake all night 

   F        C        D#      Bb           
|------8--|------8-|------7-|------7-|-     
|--10--10-|--8---8-|--8---8-|--7---8-|-
|--10-----|--9-----|--8-----|--7-----|-
|----10---|----10--|----8---|----8---|-
|--8------|--10----|--7-----|--8-----|-
|---------|--------|--------|--------|-

And I'll be awake all night
And I'll be awake all night
Tap to rate this tab
# A B C D E F G H I J K L M N O P Q R S T U V W X Y Z