Song name
# A B C D E F G H I J K L M N O P Q R S T U V W X Y Z

Cody Simpson - Awake All Night tab

This is the first tab I have ever done! I really liked this song so i decided to 
try and do a tab by ear. I also watched his music video closely to see how he 
plays the song. I know this tab might not be perfect but if there is anything you 
would suggest for it, I would love to hear it!! Just try and get the feel for the 
song while you play along with this tab! I hope you liked it and enjoy!! :)

**STANDARD TUNING AND NO CAPO USED**

CHORDS USED:
F Chord:                   C Chord:                       D# Chord:                  A# Chord:
E[-8-]                        E[-8-]                        E[-6-]                       E[-6-]
B[-10-]                       B[-8-]                        B[-8-]                       B[-6-]
G[-10-]                       G[-9-]                        G[-8-]                       G[-7-]
D[-10-]                       D[-10-]                       D[-8-]                       D[-8-]
A[-8-]                        A[-10-]                       A[-6-]                       A[-8-]
E[-8-]                        E[-8-]                        E[-6-]                       E[-6-]



VERSE:
Chords:
F Chord --> C Chord --> D# Chord --> A# chord
**hold the A# Chord the last time it comes around, each time you play the verse and let it ring**
**H= hit strings**
Finger Plucking Pattern:
E[--------X--H-]
B[-X---------H-]
G[-----X-----H-]
D[-----------H-]
A[-X---------H-]
E[-----------H-]



SOLO:
**()=let it ring; bend up and down**
**h= hammer on**
E[-------------------------------------------------------------------------------------]
B[-10-10h12-10h12-(8)-8-8h10-8h10-(6)--------------13-(8)-8-8h10-8h10------------------]
G[------------------------------------12-12h14-12--------------------12-10-------------]
D[--------------------------------------------------------------------------12-10------]
A[---------------------------------------------------------------------------------8---]
E[---------------------------------------------------------------------------------8---]



CHORUS:
Chords used:
F Chord --> C Chord --> D# Chord --> A# Chord
**hold the A# Chord the last time it comes around, each time you play the chorus and let it ring**
Strumming:
1)DOWN *pause for one count* UP DOWN and then change chords
OR 
2) use the same plucking pattern that you use for the verse



ORDER:
Verse X2
Solo
Verse X7
Chorus X5
Solo
Verse X7
Chorus X5
Solo X2
then slowly strum the F Chord DOWN the strings
Tap to rate this tab
# A B C D E F G H I J K L M N O P Q R S T U V W X Y Z