Song name
# A B C D E F G H I J K L M N O P Q R S T U V W X Y Z

Cody Simpson - Awake All Night tab

(/) Slide Up  (\) Slide Down  (h) Hammer On  (p) Pull Off  (b) Bend (r) Release (v) Vibrato

  Hello, this is my 2nd tab, turns out I wrote my first backwards or upside down
or whatever. This is one of my favourite Cody Simpson tabs and I love it! I hope I got 
it right!

PLAYED IN BAR CHORDS



 E        B        D       A
|------7-|------7-|------5-|------5--|
|--9---9-|--7---7-|--7---7-|--5---7--|
|--9-----|--8-----|--7-----|--6------|
|----9---|----9---|----7---|----7----|
|--7-----|--9-----|--5-----|--7------|
|--------|--------|--------|---------|

This is played over the tab above, I don't think you can play both at the same time.

E|-------------------------------------------------------------------|
B|--9/10--12--7----7--9--10--5----9/10--12--7----7/9--9--7--5--------|
G|------------------------------------------------------------7--4---|
D|-------------------------------------------------------------------|
A|-------------------------------------------------------------------|
E|-------------------------------------------------------------------|

(Same chords are repeated the whole song)

Chords: E B D A or the tab

Thanks;)
Tap to rate this tab
# A B C D E F G H I J K L M N O P Q R S T U V W X Y Z