Song name
# A B C D E F G H I J K L M N O P Q R S T U V W X Y Z

Coeur De Pirate - Comme Des Enfants tab

This is a very beautiful music and, if properly played in guitar, it can be so 
pretty as if it was on piano. This tab is an adaptation for guitar, it's not the 
same notes played on piano in the music. Sorry for my poor english and I hope you 
enjoy playing, because I do.

Any mistakes in the tab, contact me in ufmg_pedro@hotmail.com



A# 6 8 8 7 6 6
Fdim X 8 9 7 9 X
F#m7 X 9 7 9 10 X
D#sus2 X 6 8 8 6 6

Intro:
   A#  |Fdim|F#m7|D#sus2|A#|Fdim|F#m7|D#sus2
E--------------------------------------------|
B-----6--------------------------------------|
G------------------8----7------7-------8-----|
D--8----10---8-10--8------8-10---8--8--8-----|
A-------9---10-----6--------9----10----6-----|
E--6--------------------6--------------------|

First part:
      A#       |       Fdim   |     F#m7      |    D#sus2
E-----------------------------------------------------------|
B-----------------------------------------------------------|
G--7-----7---7--8-------8----8-10-----10---10--8-----8---8--|  x4
D----8-8---8------10-10---10------8-8----8-------8-8---8----|
A---------------9--------------10--------------6------------|
E--6--------------------------------------------------------|

First chorus
E--------------------------------------------------|
B-8-----8---8-6-----6---6--------------------------|
G-------------------------8-----8---8-7-----7---7--|
D---8-8---8-----8-8---8----------------------------|
A---------------------------6-6---6----------------|
E---------------------------------------6-6---6----|
                                End of chorus
E--------------------------------------|  --------||    --------|
B-8-----8---8-6-----6---6--------------|  --------||    --------|
G-------------------------8-----8-7-5--|  ---7-7--||    -7-5----|
D---8-8---8-----8-8---8----------------|  -8------|| x7 -----8--|
A---------------------------6-6--------|  --------||    --------|
E--------------------------------------|  --------||    --------|

Repeat First Part

Second Chorus (almost the same, with a variation in the end)

E--------------------------------------------------|
B-8-----8---8-6-----6---6--------------------------|
G-------------------------8-----8---8-7-----7---7--|
D---8-8---8-----8-8---8----------------------------|  first
A---------------------------6-6---6----------------|
E---------------------------------------6-6---6----|

E------------------------------------------------|
B-8-----8---8-6-----6---6------------------------|
G-------------------------8-----8---8-7-----7-5--|
D---8-8---8-----8-8---8--------------------------| second
A---------------------------6-6---6--------------|
E---------------------------------------6-6------|


Interlude
C#m/G# 4 4 6 4 5 4
G#m7/D# X 6 4 4 4 4
F 1 1 3 2 1 1
   C#m/G#      |    G#m7/D#             F
E----------------------------|    --------------|    
B--5-----5---5--4-----4---4--|    -1-----1---1--|
G------4---4--------4---4----|    -----2---2----|
D----6------------4----------| x3 ---3----------| x2
A---------------6------------|    --------------|
E--4-------------------------|    -1------------|
Tap to rate this tab
 
# A B C D E F G H I J K L M N O P Q R S T U V W X Y Z