Song name
# A B C D E F G H I J K L M N O P Q R S T U V W X Y Z

Cog - Bird Of Feather tab

-------------------------------------------------------------------------------
			   BIRD OF FEATHER - COG
-------------------------------------------------------------------------------
Tabbed by: Luke mac
Email: macca1990@hotmail.com

NOTE: first tab, not 100% sure on tuning.. only half complete, in the process of 
feel free to email pointers!

 Intro / verse
D|---------------------------------------------------------------------------|
A|----11--repeat-many times--10---repeat-----13------------------------------|
F|----12---------------------12--------------12------------------------------|
C|---------------------------------------------------------------------------|
G|---------------------------------------------------------------------------|
C|---------------------------------------------------------------------------|


Chorus     listen for strumming pattern


D|---------------------x-----5-----3-----3------------------------------------|
A|--unsure bout first--6-----8-----3-----3------------------------------------|
F|----chord------------7-----7-----3-----0------------------------------------|
C|---------------------8-----5-----1-----0------------------------------------|
G|---------------------8-----5-----1-----0------------------------------------|
C|---------------------8-----5-----1-----0------------------------------------|

sorry but thats it for now.. add onto it later


x  Mute note


===============================================================================
Tap to rate this tab
 
# A B C D E F G H I J K L M N O P Q R S T U V W X Y Z