Song name
# A B C D E F G H I J K L M N O P Q R S T U V W X Y Z

Cog - The Movies Over tab

-----------------------------------------------------------------------------
                          Cog - The Movie's Over
-----------------------------------------------------------------------------

Tabbed by: Runawayboy47 - Martin Azzaro

Tuning: C-G-C-F-A-D (Drop C)


Hey guys, this is unfinished for the moment because i realised it was 4am while i was 
writing it but i'll finish this tab when i can. enjoy playing whats there anyway :D

Intro/verse

D|--2-2-2-2-----2-2-2-2-----2-2-2-2-----2-2-2-2---|
A|--3-3-3-3-----3-3-3-3-----3-3-3-3-----3-3-3-3---|
F|--4-4-4-4-----4-4-4-4-----4-4-4-4-----4-4-4-4---|
C|--4-4-4-4-----4-4-4-4-----4-4-4-4-----4-4-4-4---|
G|--2-2-2-2-----2-2-2-2-----2-2-2-2-----2-2-2-2---|
C|------------------------------------------------|

D|--2-2-2-2-----2-2-2-2-----2-2-2-2-----2-2-2-2---|
A|--2-2-2-2-----2-2-2-2-----2-2-2-2-----2-2-2-2---|
F|--4-4-4-4-----4-4-4-4-----4-4-4-4-----4-4-4-4---|
C|--4-4-4-4-----4-4-4-4-----4-4-4-4-----4-4-4-4---|
G|--2-2-2-2-----2-2-2-2-----2-2-2-2-----2-2-2-2---|
C|------------------------------------------------|

Repeat however many times for introduction and verse.


Before pre-chorus:
D|--------------------------------------|
A|--------------------------------------|
F|--------------------------------------|
C|--7--7--7--7--7--7--5--5--5--5--5--5--|
G|--7--7--7--7--7--7--5--5--5--5--5--5--|
C|--7--7--7--7--7--7--5--5--5--5--5--5--|


Pre-Chorus:

D|--------0-----------------------3--5--------------|
A|--0--1-----1--0--1--------0--1--------0--1--------|
F|--------------------0--2--------------------0--2--|
C|--------------------------------------------------|
G|--------------------------------------------------|
C|--------------------------------------------------|

D|--------0----------------------/5--0----------------------------|
A|--0--1-----1--0--1--------0--1----------------------------------|
F|--------------------0--2----------------------------------------|
C|---------------------------------------4-4-4-5-5-5--------------|
G|---------------------------------------------------2-2-2-3-3-3--|
C|----------------------------------------------------------------|

Chorus:

D|--------------------------------------------------------------------------|
A|--------------------------------------------------------------------------|
F|--------------------------------------------------------------------------|
C|--2--2--2--2--2--2--2--2--2--2--2--2--0--0--0--0--0--0--0--0--0--0--0--0--|
G|--2--2--2--2--2--2--2--2--2--2--2--2--0--0--0--0--0--0--0--0--0--0--0--0--|
C|--2--2--2--2--2--2--2--2--2--2--2--2--0--0--0--0--0--0--0--0--0--0--0--0--|

D|--------------------------------------------------------------------------|
A|--------------------------------------------------------------------------|
F|--5--5--5--5--5--5--5--5--5--5--5--5--4--4--4--4--4--4--4--4--4--4--4--4--|
C|--5--5--5--5--5--5--5--5--5--5--5--5--4--4--4--4--4--4--4--4--4--4--4--4--|
G|--3--3--3--3--3--3--3--3--3--3--3--3--2--2--2--2--2--2--2--2--2--2--2--2--|
C|--------------------------------------------------------------------------|

D|--------------------------------------------------------------------------|
A|--------------------------------------------------------------------------|
F|--------------------------------------------------------------------------|
C|--2--2--2--2--2--2--2--2--2--2--2--2--0--0--0--0--0--0--0--0--0--0--0--0--|
G|--2--2--2--2--2--2--2--2--2--2--2--2--0--0--0--0--0--0--0--0--0--0--0--0--|
C|--2--2--2--2--2--2--2--2--2--2--2--2--0--0--0--0--0--0--0--0--0--0--0--0--|

D|--------------------------------------------------------------------------|
A|--------------------------------------------------------------------------|
F|--5--5--5--5--5--5--5--5--5--5--5--5--------------------------------------|
C|--5--5--5--5--5--5--5--5--5--5--5--5--5--5--5--5--5--5--7--7--7--4--4--4--|
G|--3--3--3--3--3--3--3--3--3--3--3--3--5--5--5--5--5--5--7--7--7--4--4--4--|
C|--------------------------------------5--5--5--5--5--5--7--7--7--4--4--4--|


Verse 02:

D|--2-2-2-2-----2-2-2-2-----2-2-2-2-----2-2-2-2---|
A|--3-3-3-3-----3-3-3-3-----3-3-3-3-----3-3-3-3---|
F|--4-4-4-4-----4-4-4-4-----4-4-4-4-----4-4-4-4---|
C|--4-4-4-4-----4-4-4-4-----4-4-4-4-----4-4-4-4---|
G|--2-2-2-2-----2-2-2-2-----2-2-2-2-----2-2-2-2---|
C|------------------------------------------------|

D|--2-2-2-2-----2-2-2-2-----2-2-2-2-----2-2-2-2---|
A|--2-2-2-2-----2-2-2-2-----2-2-2-2-----2-2-2-2---|
F|--4-4-4-4-----4-4-4-4-----4-4-4-4-----4-4-4-4---|
C|--4-4-4-4-----4-4-4-4-----4-4-4-4-----4-4-4-4---|
G|--2-2-2-2-----2-2-2-2-----2-2-2-2-----2-2-2-2---|
C|------------------------------------------------|


D|--------------------------------------|
A|--------------------------------------|
F|--------------------------------------|
C|--7--7--7--7--7--7--5--5--5--5--5--5--|
G|--7--7--7--7--7--7--5--5--5--5--5--5--|
C|--7--7--7--7--7--7--5--5--5--5--5--5--|

Pre-Verse:

D|--------0-----------------------3--5--------------|
A|--0--1-----1--0--1--------0--1--------0--1--------|
F|--------------------0--2--------------------0--2--|
C|--------------------------------------------------|
G|--------------------------------------------------|
C|--------------------------------------------------|

D|--------0----------------------/5--0----------------------------|
A|--0--1-----1--0--1--------0--1----------------------------------|
F|--------------------0--2----------------------------------------|
C|---------------------------------------4-4-4-5-5-5--------------|
G|---------------------------------------------------2-2-2-3-3-3--|
C|----------------------------------------------------------------|
Tap to rate this tab
 
# A B C D E F G H I J K L M N O P Q R S T U V W X Y Z