Song name
# A B C D E F G H I J K L M N O P Q R S T U V W X Y Z

Cog - Are You Interested tab

Cog - Are You Interested - Intro

By Matt Kleinschmidt

D|-----------------------------------------------------------------------------------------------|
A|----------------------------------------------------------------------------------------0----0-|
F|--2--------2--------2--------2--------0----0--2--------2-------2-------0----------------5--5/7-|
C|-----------------------------------------------------------------------------------------------|
G|-----0-0------0-0------3-3------2-2------------------------------------------------------------|
C|-------------------------------------------------3-3------3-3-----2-2-----2-2-----/5-----------|

D|-----------------------------------------------------------------------------------------------|
A|--3--------5--------1--------3--------0----0--3--------5-------1-------3----------------0----0-|
F|--2--------2--------2--------2--------0----0--2--------2-------2-------2----------------5--5/7-|
C|-----------------------------------------------------------------------------------------------|
G|-----0-0------0-0------3-3------2-2------------------------------------------------------------|
C|-------------------------------------------------3-3------3-3-----2-2-----2-2-----/5-----------|
Tap to rate this tab
# A B C D E F G H I J K L M N O P Q R S T U V W X Y Z