Guitaretab - guitar tabs
Song name
# A B C D E F G H I J K L M N O P Q R S T U V W X Y Z

Coheed And Cambria - Starcecil tab

----------------------------------------------------------------------------
			STAR CECIL - Shabutie
----------------------------------------------------------------------------
Tabbed by:Doppleganager78	
Email: goodappolo4@yahoo.com

Tuning: standard (EADgbe)

Intro/verse
e|--------------------------------------8--8\--2\------------------------|
B|-8-------8-8/10-------10/12-------12-----8\--3\---------------5--------|
G|---7---7--------0---0-------0---0----------------4---7---------7-------|
D|-----5------------0-----------0------------------------5---5-----5-----|
A|---------------------------------------------------------5---------5---|
E|-----------------------------------------------------------------------|

e|---------------------------|
B|-----------------------<9>-|
G|---------------------x-----|
D|---------5---------x-------|
A|-----5-5---5h7p5-x---------|
E|-5-7-----------------------|



e|--------------------------------------8-------8--8\--2\------|
B|-8-------8-8/10-------10/12-------12----8---8----8\--3\------|
G|---7---7--------0---0-------0---0---------0---------------4--|
D|-----5------------0-----------0------------------------------|
A|-------------------------------------------------------------|
E|-------------------------------------------------------------|
[ Tab from: http://www.guitaretab.com/c/coheed-and-cambria/104529.html ]
e|----------------------|
B|----------5-----------|
G|--7---------7---------|
D|----5---5-----5---5---|
A|------5---------5---5-|
E|----------------------|

e|---------------------------|
B|-----------------------<9>-|
G|---------------------x-----|
D|---------5---------x-------|
A|-----5-5---5h7p5-x---------|
E|-5-7-----------------------|


e|----|
B|-8--|
G|-7--|
D|-5--|
A|----|
E|----|

 CHORUS

e|-----------------------|
B|-----------------------|
G|-7-------5---7--9------|
D|-7---5---5---x--x--10--|
A|-5---5---3---5--7--10--|
E|-----3-------------8---|


e|--------------------|
B|--------------------|
G|--------------------|
D|-10--9--7--5--4--2--|
A|-10--9--7--5--4--2--|
E|-8---7--5--3--2--0--|

e|----------------------------------------------------|
B|-9-9-9-9-9-9\7-7-7-7/10-10-10-10/12-12-12-12/15-15--|
G|-8-8-8-8-8-8\6-6-6-6/9--9--9---9/11-11-11-11/14-14--|
D|----------------------------------------------------|
A|----------------------------------------------------|
E|----------------------------------------------------|


e|------------|
B|------------|
G|------------|
D|-4-4-4-4-4--|
A|-4-4-4-4-4--|
E|-2-2-2-2-2--|


e|-----------------|
B|-----------------|
G|-9---------------|
D|-9--9--10--5--7--|
A|-7--9--10--5--7--|
E|----7--8---3--5--|


| /  slide up
| \  slide down
| h  hammer-on
| p  pull-off
| ~  vibrato
| <>  harmonic
| x  Mute note
Related for Starcecil tab
Starcecil chords by Coheed And Cambria