Song name
# A B C D E F G H I J K L M N O P Q R S T U V W X Y Z

Coheed And Cambria - Road And The Damned tab

doppleganger78
e-mail-goodappolo4@yahoo.com

e|---------------------------------|
B|---------------------------------|
G|------2-----2--------------------|
D|----0-----0---------------/5-4---|
A|--2-----0-----0h2-5-5-5-0--------|
E|---------------------------------|

e|----------------x--|
B|----------------3--|
G|------2-----2---2--|
D|----0-----0-----0--|
A|--2-----0-------0--|
E|----------------0--|

e|-------------|
B|-------------|
G|-------------|
D|-/4-2-2-0-2--|
A|-------------|
E|-------------|

e|-------------|
B|-------------|
G|-------------|x4
D|-------------|
A|-2-2-2-2-2-2-|
E|-0-0-0-0-0-0-|

e|------|
B|------|
G|------|
D|------|
A|-5~~--|
E|-3~~--|
Tap to rate this tab
 
# A B C D E F G H I J K L M N O P Q R S T U V W X Y Z