Song name
# A B C D E F G H I J K L M N O P Q R S T U V W X Y Z

Coheed And Cambria - On The Brink tab

----------------------------------------------------------------------------
	           on the brink - Coheed and Cambria
----------------------------------------------------------------------------
Tabbed by: Doppleganger78
Email:goodappolo4@yahoo.com

Tuning: Standard

  GTR 1
e|--------------------------|----------------------------------|
B|--------------------------|----------------------------------|
G|-----8-10-----------------|-10b11-8-10p8-10b11-8-10-10p8-----|
D|-/10------10-10-----------|------------------------------10--|
A|--------------------------|----------------------------------|
E|--------------------------|----------------------------------|
 |
 |GTR 2
e|--------------------------|----------------------------------|
B|--------------------------|----------------------------------|
G|-----------------8--------|------------8---------------------|
D|-------------------10-----|---------------8------------------|
A|----------------------10--|------------------8---------------|
E|--------------------------|----------------------------------|


e|----------------------------|----------------------------------|
B|----------------------------|----------------17-16-------------|
G|------------------------/17-|----------------------12\8-8~~----|
D|----------------------------|----------------------------------|
A|-/8-10-/11-10--6-8-6-5------|----------------------------------|
E|----------------------------|----------------------------------|
 |
 |
e|----------------------------|----------------------------------|
B|-------8--------------------|----------------------------------|
G|---------8------------------|--8-10----7-8---------------------|
D|-----------10---------------|-------10-----8-------------------|
A|---------------6-8-6-5-3----|----------------------------------|
E|----------------------------|----------------------------------|


e|------------------------------------|
B|------------------------------------|
G|------------------------------10b11-|
D|------------------10-10-12-13-------|
A|------------------------------------|
E|------------------------------------|
 |
 |
e|------------------------------------|
B|------------------------------------|
G|--8-10----7-8-----------------------|
D|-------10-----8---------------------|
A|------------------------------------|
E|------------------------------------|


e|-------------------------------------|
B|-------------------------------------|
G|------8-10--------------------15-12--|
D|--/10------10-10--10/12-13-15--------|
A|-------------------------------------|
E|-------------------------------------|
 |
 |
e|-------------------------------------|
B|-------------------------------------|
G|-------------------------------------|
D|-------------------------------------|
A|-------------------------------------|
E|-------------------------------------|


Tap to rate this tab
 
# A B C D E F G H I J K L M N O P Q R S T U V W X Y Z