Song name
# A B C D E F G H I J K L M N O P Q R S T U V W X Y Z

Coheed And Cambria - 3 3 tab

Intro
  Moderate Rock Q=78
  C/G   Cm/Eb        C/G   Cm/Eb
 4/4
  Gtrs I, II
  S S S S +H.        S S S S +H.
|------------------|----------------|
|-------4-(4)------|-------4-(4)----|
|-5-5-5-5-(5)------|-5-5-5-5-(5)----|
|-5-5-5-5-(5)------|-5-5-5-5-(5)----|
|-------6-(6)------|-------6-(6)----|
|------------------|----------------|


  Eb
  S S S S S S S S S S S S S S S S   S S S S S S S S S S S S S S S S
|---------------------------------|---------------------------------|
|---------------------------------|---------------------------------|
|---8-------8-------8-------8-----|---8-------8-------8-------8-----|
|-5---5---5---5---5---5---5---5---|-5---5---5---5---5---5---5---5---|
|---------------------------------|---------------------------------|
|---------------------------------|---------------------------------|


  D
  S S S S S S S S S S S S S S S S   S S S S S S S S S S S S S S S S
|---------------------------------|---------------------------------|
|---------------------------------|---------------------------------|
|---7-------7-------7-------7-----|---7-------7-------7-------7-----|
|-4---4---4---4---4---4---4---4---|-4---4---4---4---4---4---4---4---|
|---------------------------------|---------------------------------|
|---------------------------------|---------------------------------|


  Eb
  ~~~~~~~~~~~~~~~~~~~~~~~~~~~~~~~~~~~~~~~~~~~~~~
  E. S +E  E  S   E. +Q      E. S +E  E  S   E. E. S
|--------------------------|-------------------------|
|--------------------------|-------------------------|
|----8-(8)---[8]-[7]-(7)\--|----8-(8)---[8]-[7]------|
|-5--------5---------------|-5--------5---------5\---|
|--------------------------|--------------------5\-0-|
|--------------------------|-------------------------|


  D
  S S S S S S S S S S S S S S S S   S S S S S S S S S S S S S S S S
|---------------------------------|---------------------------------||
|---------------------------------|---------------------------------||
|---7-------7-------7-------7-----|---7-------7-------7-------7-----||
|-4---4---4---4---4---4---4---4---|-4---4---4---4---4---4---4---4---||
|---------------------------------|---------------------------------||
|---------------------------------|---------------------------------||
Tap to rate this tab
# A B C D E F G H I J K L M N O P Q R S T U V W X Y Z