Song name
# A B C D E F G H I J K L M N O P Q R S T U V W X Y Z

Coheed And Cambria - The End Complete I - The Fall Of House Atlantic tab

Doesn't sound exactly like the song but it's how I play it and it sounds good to me.

    
|----------------------------------|-----------------------------\ 
|---0---0---0---0---0---0---0---0--|                              \
|-----2-------2-------2-------2----|                               \
|----------------------------------|                                \
|-0-------0-------2-------3--------|                                 \
|----------------------------------|                                  \
|                                                                      |
|----------------------------------|                                   | 
|---0---0---0---0---0---0---0---0--|                                   |
|-----2-------2-------2-------2----|                                   |
|-----------------2-------3--------|                                   |-5x
|-0-------0------------------------|                                   |
|----------------------------------|                                   |
|                                                                      |
|-----------------------------------------------------------------|    |
|---0---0---0---0---0---0---0---0---0---0---0---0---0---0---0---0-|    /
|-----2-------2-------2-------2-------2-------2-------2-------2---|   /
|-0-------0-------0-------0-------0-------0-------0-------0-------|  /
|-----------------------------------------------------------------| /
|-----------------------------------------------------------------|/ 

After that plays once the electric guitars come in with distortion
|----------------------------|\
|----------------------------| \
|----------------------------| |__4x 
|-2-----4--5--9-----7--5--4--| | 
|-0-----2--3--7-----5--3--2--| /
|----------------------------|/

Outro
|------------0--|
|------------0--|
|------------2--|
|-0----------2--|
|------3--2--0--|
|---------------|


Tap to rate this tab
# A B C D E F G H I J K L M N O P Q R S T U V W X Y Z