Song name
# A B C D E F G H I J K L M N O P Q R S T U V W X Y Z

Coheed And Cambria - Keeping The Blade tab

-----------------------------------------------------------------------------
			     Keeping the Blade  Coheed and Cambria
-----------------------------------------------------------------------------

Tuning: Standard 

This isn't the whole song but the two segments below are exactly how Coheed plays it.

e|------------------18----16-14-13---13-14----------|
B|---------13-14-16----------------14-----14-13-----|
G|-15-----------------------------------------------|    Repeat
D|--------------------------------------------------|
A|--------------------------------------------------|
E|--------------------------------------------------|

e|--------------------------------------|
B|--------------------------------------|
G|------------3--1----------------------|   Repeat
D|----------1------4-3----3-4-----------|
A|-1----3-4------------4------4-3-------|
E|--------------------------------------|

Tap to rate this tab
# A B C D E F G H I J K L M N O P Q R S T U V W X Y Z