Song name
# A B C D E F G H I J K L M N O P Q R S T U V W X Y Z

Coheed And Cambria - Here We Are Juggernaut tab

Here We Are

Intro x4
|-----------------------|
|-----------------------|
|-----------------------|
|-------2---------------|
|-2-4-4---4-4-2-4-4-----|
|-------------------2-0-|

Between second
|-------|
|-------|
|-------|
|-9-/6--|
|-11/6--|
|-------|

Verse 1 x8
|-----------------------|
|-----------------------|
|-----------------------|
|-------2---------------|
|-2-4-4---4-4-2-4-4-----|
|-------------------2-0-|

Between second
|-------|
|-------|
|-------|
|-9-/6--|
|-11/6--|
|-------|

Chorus
|-----------------|    |-----------------|    |-----------------|
|-----------------|    |-----------------|    |-----------------|
|-----------------|    |-----------------|    |-----------------|
|-7-7-7-7-7-7-7-7-|    |-2-2-2-2-2-2-2-2-|    |-7-7-7-7-7-7-7-7-|
|-7-7-7-7-7-7-7-7-|    |-2-2-2-2-2-2-2-2-|    |-7-7-7-7-7-7-7-7-|
|-5-5-5-5-5-5-5-5-| x3 |-0-0-0-0-0-0-0-0-| x3 |-5-5-5-5-5-5-5-5-|

Interlude
|------------------------------------|
|------------------------------------|
|-------13----16----------13----16---|
|-11-14-------------11-14------------|
|------------------------------------|
|------------------------------------|


Verse 2

Chorus

Bridge x3
Guitar 1
  Pm----------------------------
|---------------------------------|
|---------------------------------|
|---------------------------------|
|-6-6-6-6-6-6-6-6-6-6-6-6-6-6-6-6-|
|-4-4-4-4-4-4-4-4-4-4-4-4-4-4-4-4-|
|---------------------------------|

Guitar 2
|---------------------------------|
|-----------9---------------------|
|----9-------------9--------8-----|
|---------------------------------|
|---------------------------------|
|---------------------------------|

Guitar 1
 Pm------------------------------
|---------------------------------|
|---------------------------------|
|---------------------------------|
|-4-4-4-4-4-4-4-4-4-4-4-4-4-4-4-4-|
|-2-2-2-2-2-2-2-2-2-2-2-2-2-2-2-2-|
|---------------------------------|

Guitar 2
|---------------------------------|
|---------------7-----------------|
|----------------------8----------|
|------11-------------------------|
|---------------------------------|
|---------------------------------|

Guitar 1
 Pm---------------
|-----------------|
|-----------------|
|-----------------|
|-2-2-2-2-2-2-2-2-|
|-0-0-0-0-0-0-0-0-|
|-----------------|

Guitar 2
|-----------------|
|-----------------|
|-----------------|
|--11------9------|
|----------------|
|-----------------|

Guitar 1
|--------------------------------------------------|
|--------------------------------------------------|
|-2-2-2-2-2-2-2-2-2-2-2-2-2-2-2-2-2-2-2-2-2-2-2-2/-|
|-2-2-2-2-2-2-2-2-2-2-2-2-2-2-2-2-2-2-2-2-2-2-2-2/-|
|-0-0-0-0-0-0-0-0-0-0-0-0-0-0-0-0-0-0-0-0-0-0-0-0--|
|--------------------------------------------------| 

Guitar 2
|--------------------------------------------------|
|--------------------------------------------------|
|-9-9-9-9-9-9-9-9-8-8-8-8-8-8-8-8-6-6-6-6-6-6-6-6--|
|-7-7-7-7-7-7-7-7-7-7-7-7-7-7-7-7-7-7-7-7-7-7-7-7--|
|--------------------------------------------------|
|--------------------------------------------------|

End Chorus
Guitar 1
 Pm--------------------
|---------------------------------|
|---------------------------------|
|---------------------------------|
|---------------------------------|
|-7-7-7-7-7-7-7-7-7-7-7-7-7-7-7-7-|
|-5-5-5-5-5-5-5-5-5-5-5-5-5-5-5-5-|

Guitar 2
|---------------------------------------|
|---------------------------------------|
|-9-----11-9-8-------9-----11-9-8-------|
|---9-11-------11-9----9-11-------11-9--|
|---------------------------------------|
|---------------------------------------|

Guitar 1
|---------------------------------|
|---------------------------------|
|---------------------------------|
|-7-7-7-7-7-7-7-7-7-7-7-7-7-7-7-7-|
|-7-7-7-7-7-7-7-7-7-7-7-7-7-7-7-7-|
|-5-5-5-5-5-5-5-5-5-5-5-5-5-5-5-5-|

Guitar 2
|---------------------------------------|
|---------------------------------------|
|-9-----11-9-8-------9-----11-9-8-------|
|---9-11-------11-9----9-11-------11-9--|
|---------------------------------------|
|---------------------------------------|

Guitar 1
|---------------------------------|
|---------------------------------|
|---------------------------------|
|-7-7-7-7-7-7-7-7-7-7-7-7-7-7-7-7-|
|-7-7-7-7-7-7-7-7-7-7-7-7-7-7-7-7-|
|-5-5-5-5-5-5-5-5-5-5-5-5-5-5-5-5-|

Guitar 2
|---------------------------------|
|-------12-----------12-----------|
|---9-9----11-9-11------11--9-11--|
|---------------------------------|
|---------------------------------|
|---------------------------------|

Guitar 1
|---------------------------------|
|---------------------------------|
|---------------------------------|
|-2-2-2-2-2-2-2-2-2-2-2-2-2-2-2-2-|
|-0-0-0-0-0-0-0-0-0-0-0-0-0-0-0-0-|
|---------------------------------|x2

Guitar 2
|---------------------------------|
|---12-------------12-------------|
|------11--9-11-------11--9-11----|
|---------------------------------|
|---------------------------------|
|---------------------------------|x2

Guitar 1
|---------------------------------|
|---------------------------------|
|---------------------------------|
|-7-7-7-7-7-7-7-7-7-7-7-7-7-7-7-7-|
|-7-7-7-7-7-7-7-7-7-7-7-7-7-7-7-7-|
|-5-5-5-5-5-5-5-5-5-5-5-5-5-5-5-5-|x8

Guitar 2
|---------------------------------------|
|---------------------------------------|
|-9-----11-9-8-------9-----11-9-8-------|
|---9-11-------11-9----9-11-------11-9--|
|---------------------------------------|
|---------------------------------------|x8

End
Guitar 1
|---|
|---|
|---|
|-2-|
|-2-|
|-0-|
Tap to rate this tab
# A B C D E F G H I J K L M N O P Q R S T U V W X Y Z