Song name
# A B C D E F G H I J K L M N O P Q R S T U V W X Y Z

Coheed And Cambria - Pearl Of The Stars tab

[       PEARL OF THE STARS          ]
[       COHEED AND CAMBRIA          ]
[  YEAR OF THE BLACK RAINBOW (2010  ]

TUNED TO: Half Step Down (Eb Ab Db Gb Bb Eb)

Guitar Solo:

(3.09)

E|---------------------------------------------------------------------------|
B|---------------------------------------------------------------------------|
G|-s14~~--b16--b14-12------------------------12------------------------------|
D|----------------------14p12----------12h14----14~~----7s9-(9)h10-9-7p5h7~~-|
A|----------------------------15p14h15---------------------------------------|
E|---------------------------------------------------------------------------|

(3.22)

E|------------------------------------------------------------------|
B|----------------------------------------------------------10-10---|
G|------------------------------------------14-12p9h12b14------12b--|
D|-12b14----b12p10----10h12p10~~------12h14-------------------------|
A|-----------------12-----------------------------------------------|
E|------------------------------------------------------------------|

(3.31)

E|----------------------------------------------------------19--------------------|
B|-------13b15b13-13p12-12b-----(s18)---20b22--b20-17-17~~-----20-22-17~----------|
G|-12h14-------------------14~~-------------------------------------------12-12~~-|
D|--------------------------------------------------------------------------------|
A|--------------------------------------------------------------------------------|
E|--------------------------------------------------------------------------------|


Notes:

This solo is very triplet-y along to a 4/4 beat. Great fun to play; I tried tabbing it 
Guitar Pro but the timing was too fiddly to work out. If you're a big fan of GP files 
me, sorry, I'm sure someone will do a nice one in due course.

The (s18) in the last measure is, probably, a whammy pedal. But if like me you don't 
one, I guess either do what I tabbed or ignore it :)

I think this solo is played by Travis, though I'm only going on an acoustic demo I saw.


-----
Tabbed by Papaledoupe (matt[AT]kitserve.org.uk)
04/08/2010
Tap to rate this tab
 
# A B C D E F G H I J K L M N O P Q R S T U V W X Y Z