Guitaretab - guitar tabs
Song name
# A B C D E F G H I J K L M N O P Q R S T U V W X Y Z

Coheed And Cambria - World Of Lines tab

Artist: Coheed and Cambria
Track: "World of Lines"
Album: The Year of the Black Rainbow
Tuning: e Flat

Tabbed by Larry Jones

Key:
/ - slide
. - palm mute
v - vibrato
p - pull off
h - hammer on
~ - let ring
b - bend to sound like the following note
r - release bend
* - natural harmonic

Intro: (0:00 - 0:22)

Claudio Guitar x 4
eb-----------------------------------------------------------------|
Bb-----------------------------------------------------------------|
Gb-----------------------------------------------------------------|
Db---8------8------------------------------------------------------|
Ab-6---9--6---9---6-8-9---6-8-9---4-6-8---4-6-8--------2-2---------|
Eb-----------------------------------------------0h4h6-----6-4-6---|


Travis Guitar x 2

eb-----------------------------------------------------------------|
Bb-----------------------------------------------------------------|
Gb-----------------------------------------------------------------|
Db-88-888---------888-888------------------------------------------|
Ab-66-666---------666-666---------999-999---------666-666----------|
Eb--------------------------------777-777---------444-444----------|

Synth Lead

eb---------------------------------------------------|
Bb-11-12-11-----------------11-12-11-----------------|
Gb----------11-13-15v----------------11-13-----------|
Db-----------------------------------------13v-------|
Ab---------------------------------------------------|
Eb---------------------------------------------------|

1st Verse: (0:22 - 0:55)

"This is the hidden truth, the world between the lines..."

Claudio Guitar:

First time through
eb---------------------------------------------------|
Bb---------------------------------------------------|
Gb---------------------------------------------------|
Db---------------------------------------------------|
Ab---------------------------------------------------|
Eb---------------------------------------------------|

Second time through x 2
eb---------------------------------------------------------|
Bb----------------------------111111-111111-111111119-9-9--|
Gb----------------------------x-x-x--x-x-x--x-x-x-x-x-x-x--|
Db---8------8-----------------8-8-8--8-8-8--8-8-8-8-6-6-6--|
Ab-6---9--6---9---6-8-9-6-8-9------------------------------|
Eb---------------------------------------------------------|

Third time through x 2
eb-----------------------------------------------------------------|
Bb-----------------------------------------------------------------|
Gb-----------------------------------------------------------------|
Db---8------8------------------------------------------------------|
Ab-6---9--6---9---6-8-9---6-8-9---4-6-8---4-6-8--------2-2---------|
Eb-----------------------------------------------0h4h6-----6-4-6---|


Travis Guitar:

First time through
eb---------------------------------------------------------------------------|
Bb---------------------------------------------------------------------------|
Gb---------------------------------------------------------------------------|
Db---8-----8----------------88-888-888-888-8---------------------------------|
Ab-6---9-6---9--6-8-9-6-8-9-66-666-666-666-699-999-999-999-966-666-666-666-6-|
Eb------------------------------------------77-777-777-777-744-444-444-444-4-|

Second time through
eb------------------------------------------------------------------|
Bb------------------------------------------------------------------|
Gb------------------------------------------------------------------|
Db-88-888-888-888-888-888-888-888-8---------------------------------|
Ab-66-666-666-666-666-666-666-666-699-999-999-999-966-666-666-666-6-|
Eb---------------------------------77-777-777-777-744-444-444-444-4-|

Third time through
eb------------------------------------------------------------------|
Bb------------------------------------------------------------------|
Gb------------------------------------------------------------------|
Db-88-899-988-866-688-899-988-866-6---------------------------------|
Ab-66-666-666-666-666-666-666-666-699-999-999-999-966-666-666-666-6-|
Eb---------------------------------77-777-777-777-744-444-444-444-4-|


Chorus: (0:55 - 1:17)

"Just leave us alone..."

Claudio Guitar: x 2
eb--------------------------------------------------------------------|
Bb--------------------------------------------------------------------|
Gb--------------------------------------------------------------------|
Db-88888888888888868888888888888888-----------------------------------|
Ab-66666666666666646666666666666666-9999999999999999-6666666666666666-|
Eb----------------------------------7777777777777777-4444444444444444-|


Travis Guitar:

First time through
eb--------------------------------------------------------------------|
Bb--------------------------------------------------------------------|
Gb--------------------------------------------------------------------|
Db-88888888888888868888888888888888-----------------------------------|
Ab-66666666666666646666666666666666-9999999999999999-6666666666666666-|
Eb----------------------------------7777777777777777-4444444444444444-|

second time through x 2
eb---------------------------------------------------|
Bb-14----11v-14----11----14----11v-14----11----------|
Gb----13--------13----------13--------13-------------|
Db-------------------13v--------------------13v------|
Ab---------------------------------------------------|
Eb---------------------------------------------------|

2nd Verse: (1:17 - 1:39)

"Communications breaking, the static hoarding the lines..."

Claudio Guitar: x 4
eb-----------------------------------------------------------------|
Bb-----------------------------------------------------------------|
Gb-----------------------------------------------------------------|
Db---8------8------------------------------------------------------|
Ab-6---9--6---9---6-8-9---6-8-9---4-6-8---4-6-8--------2-2---------|
Eb-----------------------------------------------0h4h6-----6-4-6---|


Travis Guitar:
[ Tab from: http://www.guitaretab.com/c/coheed-and-cambria/221444.html ]
first time through x 2
eb-----------------------------------------------------|
Bb-----------------------------------------------------|
Gb-8b9r8v----------------------------------------------|
Db-----------------------------------------------------|
Ab-----------------------------------------------------|
Eb-----------------------------------------------------|


second time through x 1
eb------------------------------------------------------------------|
Bb------------------------------------------------------------------|
Gb------------------------------------------------------------------|
Db-88-899-988-866-688-899-988-866-6---------------------------------|
Ab-66-666-666-666-666-666-666-666-699-999-999-999-966-666-666-666-6-|
Eb---------------------------------77-777-777-777-744-444-444-444-4-|


2nd Chorus: (1:39 - 2:01)

"Just leave us alone..."

Claudio Guitar:

first time through
eb--------------------------------------------------------------------|
Bb--------------------------------------------------------------------|
Gb--------------------------------------------------------------------|
Db-88888888888888868888888888888888-----------------------------------|
Ab-66666666666666646666666666666666-9999999999999999-6666666666666666-|
Eb----------------------------------7777777777777777-4444444444444444-|

second time through
eb--------------------------------------------------------------------|
Bb--------------------------------------------------------------------|
Gb--------------------------------------------------------------------|
Db-88888888888888868888888888888888-----------------------------------|
Ab-66666666666666646666666666666666-9999999999999999-6666666688888888-|
Eb----------------------------------7777777777777777-4444444466666666-|


Travis Guitar: x 4
eb---------------------------------------------------|
Bb-14----11v-14----11----14----11v-14----11----------|
Gb----13--------13----------13--------13-------------|
Db-------------------13v--------------------13v------|
Ab---------------------------------------------------|
Eb---------------------------------------------------|

Bridge: (2:01 - 2:28)
"I'll stay at your pace and go hide..."

Claudio Guitar: x 2
eb----------------------------------------------------------------------|
Bb----------------------------------------------------------------------|
Gb----------------------------------------------------------------------|
Db---------6-9-8-6-----6-----------------4-6-8-4----88-88---------------|
Ab-99-99-6---------9-8---9-8-66-66-4-6-8---------6v-66-66-------------4-|
Eb-77-77---------------------44-44------------------------6-4-2-4-2-1---|

end on
eb---------------------------------------------------|
Bb---------------------------------------------------|
Gb---------------------------------------------------|
Db---------------------------------------------------|
Ab-9~------11~---------------------------------------|
Eb-7~------9-~---------------------------------------|


Travis Guitar: x 2
eb---------------------------------------------------|
Bb----------6v-7-------------------------------------|
Gb-8b9r8v---------8----------------------------------|
Db---------------------8-6-4-6-4-3-------------------|
Ab---------------------------------4-----------------|
Eb---------------------------------------------------|

end on
eb-13V---13V---13v---13v---13v---13v---13v---13v---13v---13v---13v-------|
Bb----17v---17v---17v---17v---17v---17v---17v---17v---17v---17V---17V----|
Gb-----------------------------------------------------------------------|
Db-----------------------------------------------------------------------|
Ab-----------------------------------------------------------------------|
Eb-----------------------------------------------------------------------|
let the above notes ring together while doing heavy vibrato to simulate that creepy sound


Outro: (2:28 - 3:15)

"Just leave us alone..."

Claudio Guitar: x 4
eb--------------------------------------------------------------------|
Bb--------------------------------------------------------------------|
Gb--------------------------------------------------------------------|
Db-88888888888888868888888888888888-----------------------------------|
Ab-66666666666666646666666666666666-9999999999999999-6666666666666666-|
Eb----------------------------------7777777777777777-4444444444444444-|

Travis Guitar:
eb-9----------------11---------------9----------------9-------------------|
Bb---11----------11----11--------------11----------11---11----------9-11--|
Gb------10----10----------10b11r10--------10----10---------10b11r11-------|
Db---------11--------------------------------11---------------------------|
Ab------------------------------------------------------------------------|
Eb------------------------------------------------------------------------|

eb-9----------------11---------------9----------------11------------------|
Bb---11----------11----11--------------11----------11----11------9-11-----|
Gb------10----10----------10b11r10--------10----10----------10-8----------|
Db---------11--------------------------------11---------------------------|
Ab------------------------------------------------------------------------|
Eb------------------------------------------------------------------------|

eb-9----------------11---------------9------------------------------------|
Bb---11----------11----11--------------11----------11--4-6-7-9-11---------|
Gb------10----10----------10b11r10--------10----10------------------------|
Db---------11--------------------------------11---------------------------|
Ab------------------------------------------------------------------------|
Eb------------------------------------------------------------------------|

eb-9----------------11---------------9------------------------------------|
Bb---11----------11----11--------------11----------11-4-6-7-9-------------|
Gb------10----10----------10b11r10--------10----10------------------------|
Db---------11--------------------------------11---------------------------|
Ab------------------------------------------------------------------------|
Eb------------------------------------------------------------------------|
Related for World Of Lines tab
World Of Lines chords by Coheed And Cambria