Song name
# A B C D E F G H I J K L M N O P Q R S T U V W X Y Z

Coheed And Cambria - Here We Are Juggernaut Acoustic tab

Artist: Coheed and Cambria
Track: "Here We Are Juggernaut" (Acoustic)

Taken from the 04/12/2010 Live Acoustic Performance
by Claudio Sanchez at Newbury Comics in N. Attleboro, MA.

YouTube Links:
http://www.youtube.com/watch?v=TD5py4_Uz-Y&feature=related
http://www.youtube.com/watch?v=QbyqWHBfr_U&feature=related


Tuning:
Esus4 -> Go from E-A-D-G-B-e to E-A-E-A-B-e by tuning the D & G strings a full step up.

Notes:
Claudio fingerpicks this song.  There are variations to each riff; exactly what you would
expect from him playing live.  I tried to reproduce this piece note for note.  If you cannot
handle the variations, you can 100% get through it by repeating the main themes.  I believe
this to be extremely accurate.  I hope everyone enjoys it.


Tabbed by Larry Jones

Key:
/ - slide
. - palm mute
v - vibrato
p - pull off
h - hammer on
~ - let ring
b - bend to sound like the following note
r - release bend
* - natural harmonic


Intro: x 1

e-----------14~---------------------14~--------------------14~--------------------14~----------|
B------12~-----12~------------12~------12~-----------12~------12~-----------12~------12~-------|
A---11~---11~------11~-----11~---11~------11~-----11~---11~------11~-----11~---11~------11~----|
E-0~------------------0~-0~------------------0~-0~------------------0~-0~------------------0~--|
A----------------------------------------------------------------------------------------------|
E----------------------------------------------------------------------------------------------|

e------------14~----------14~----------------------------14~-------------------14~-------------|
B------12~------12~----------12~--------12~--------12~------12~----------12~------12~----------|
A---11~---11~------11~----------11~--11~--------11~---11~------11~----11~---11~------11~-------|
E---------------------0~------------------------------------------0~--------------------0~-----|
A-0~--------------------0~---------0~------0~-0~--------------------0~-------------------------|
E----------------------------------------------------------------------------------------------|

e-----------14~---------------------14~--------------------14~--------------------14~----------|
B------12~-----12~------------12~------12~-----------12~------12~-----------12~------12~-------|
A---11~---11~------11~-----11~---11~------11~-----11~---11~------11~-----11~---11~------11~----|
E-0~------------------0~-0~------------------0~-0~------------------0~-0~------------------0~--|
A----------------------------------------------------------------------------------------------|
E----------------------------------------------------------------------------------------------|

e-----------14~------------------14~------------------14~----------------0~--------------------|
B------12~-----12~----------12~-----12~----------12~-----12~---------------0~------------------|
A---11~-----------11~----11~-----------11~----11~-----------11~------0~------0~----------------|
E--------------------0~-------------------0~-------------------0~--0~----------0~--------------|
A-0~------0~-----------0~------0~-----------0~------0~-----------0~----0~----------------------|
E----------------------------------------------------------------------------------------------|


Verse Riff: x 2

e---------------------------------------------------------------------------|
B---------------------------------------------------------------------------|
A---------------------------------------------------------------------------|
E---------------------------------------------------------------------------|
A---2---4---4/7---4---2---4---0~--0~--2---4---4/7---4---2---4---0~--0~------|
E-0~--0~--0~----0~--0~--0~--0~--0~--0~--0~--0~----0~--0~--0~--0~--0~--------|

Verse I: x 1

e---------------------------------------------------------------------------|
B---------------------------------------------------------------------------|
A---------------------------------------------------------------------------|
E---------------------------------------------------------------------------|
A---2---4---4/7---4---2---4---0~--0~--2---4---4/7---4---2---4---0~--0~------|
E-0~--0~--0~----0~--0~--0~--0~--0~--0~--0~--0~----0~--0~--0~--0~--0~--------|

e---------------------------------------------------------------------------|
B---------0~---------------0~-----------------------------------------------|
A-----4~----4~---------4~----4~---------------------------------------------|
E---5~--------5~-----5~--------5~-------------------------------------------|
A-0~----0~------0~-0~----0~------0~--2---4---4/7---4---2---4---0~--0~-------|
E----------------------------------0~--0~--0~----0~--0~--0~--0~--0~---------|

e---------------------------------------------------------------------------|
B---------------------------------------------------------------------------|
A---------------------------------------------------------------------------|
E---------------------------------------------------------------------------|
A---2---4---4/7---4---2---4---0~--0~--2---4---4/7---4---2---4---0~--0~------|
E-0~--0~--0~----0~--0~--0~--0~--0~--0~--0~--0~----0~--0~--0~--0~--0~--------|

Pre-Chorus I: x 1

e---------------------------------------------------------------------------|
B---------0~--------------0~--------------0~--------------0~----------------|
A-----4~----4~--------4~----4~--------4~----4~--------4~----4~--------------|
E---5~--------5~----5~--------5~----5~--------5~----5~--------5~------------|
A-0~----0~------0-0~----0~------0-0~----0~------0-0~----0~------------------|
E---------------------------------------------------------------------------|


Chorus I: x 1

e---------------------------------------------------------------------------|
B-----------0~--------------0~--------------0~--------------0~--------------|
A-------------4~--------------4~--------------4~--------------4~------------|
E-------0~------0~------0~------0~------0~------0~------0~------0~----------|
A-----0~--0~----------0~--0~----------0~--0~----------0~--0~----------------|
E-5-5~------------5-5~------------5-5~------------5-5~----------------------|

e---------------------------------------------------------------------------|
B-----------0~--------------0~--------------0~--------------0~--------------|
A-------------0~--------------0~--------------0~--------------0~------------|
E-------4~------4~------4~------4~------4~------4~------4~------4~----------|
A-----2~--2~----------2~--2~----------2~--4~----------2~--2~----------------|
E-0-0~------------0-0~------------0-0~------------0-0~----------------------|

e---------------------------------------------------------------------------|
B-----------0~--------------0~--------------0~--------------0~--------------|
A-------------4~--------------4~--------------4~--------------4~------------|
E-------0~------0~------0~------0~------0~------0~------0~------0~----------|
A-----0~--0~----------0~--0~----------0~--0~----------0~--0~----------------|
E-5-5~------------5-5~------------5-5~------------5-5~----------------------|

Verse Riff: x 1

Verse II: x 1 (same as Verse I)

Chorus II: x 1 (same as Chorus I)

Bridge: x 1

e--------------------------------------------------0~-----------------------|
B---------0~---------------0~--------------0~--------0~----0~---------------|
A-----0~----0~---------0~----0~--------0~----0~--------0~----0~-------------|
E---4~--4~----4~-----4~--4~----4~----4~--4~----4~--------4~----4~-----------|
A-4~------------4~-4~------------0-2~------------2~--------------2~---------|
E---------------------------------------------------------------------------|

e---------------------------------------------------------------------------|
B---------0~------5v~------5v~------4v~------4v~------2v~------2v~----------|
A-----0~----0~-------0~-------0~-------0~-------0~-------0~-------0~--------|
E---0~--0~----0~-------0~-------0~-------0~-------0~-------0~-------0~------|
A-0~------------0~-------0~-------0~-------0~-------0~-------0~-------0~----|
E---------------------------------------------------------------------------|

e---------------------------------------------------------------------------|
B---------0~---------------0~--------------0~---------------0~--------------|
A-----0~----0~---------0~----0~--------0~----0~---------0~----0~---0~-------|
E---4~--4~----4~-----4~--4~----4~----4~--4~----4~-----4~--4~----4~----------|
A-4~------------4~-4~------------0-2~------------2~-2~----------------------|
E---------------------------------------------------------------------------|

e---------0~----------------------------------------------------------------|
B-----------0~----5v~------5v~------4v~------4v~---------2v~------2v~-------|
A-----0~------0~-----0~-------0~-------0~-------0~----------0~-------0~-----|
E---0~--0~-------------0~-------0~-------0~-------0~----------0~-------0~---|
A-0~------------0~-------0~-------0~-------0~-------0~-0~-------0~----------|
E---------------------------------------------------------------------------|

e-----------------0~------------------------------------0~------------------|
B---------0~--------0~------0~------------0~----------------0~--------------|
A-----0~----0~--------0~------0~------0~----0~------0~----------0~----------|
E---4~--4~----4~--------4~------4~--4~--2~----4~----------------------------|
A-4~------------4~--------4~------2~------------2-2~--2~--2~--2~------------|
E---------------------------------------------------------------------------|

e---------0~----------------------------------------------------------------|
B-----------0~----5v~------5v~------4v~------4v~---------2v~------0~--------|
A-----0~------0~-----0~-------0~-------0~-------0~----------0~------0~------|
E---0~--0~-------------0~-------0~-------0~-------0~----------0~------0~----|
A-0~------------0~-------0~-------0~-------0~-------0~-0~-------0~----------|
E---------------------------------------------------------------------------|

Pre Chorus II: x 1

e---------------------------------------------------------------------------|
B---------0~---------------0~--------------0~--------------0~---------------|
A-----0~----0~---------0~----0~--------6~----6~--------6~----6~-------------|
E---4~--4~----4~-----4~--4~----4~----7~--------7~----7~--------7~-----------|
A-4~------------4~-4~------------4-0~----0~------0-0~----0~------0~---------|
E---------------------------------------------------------------------------|

e---------------------------------------------------------------------------|
B---------0~---------------0~--------------0~--------------0~---------------|
A-----0~----0~---------0~----0~--------6~----6~--------6~----6~-------------|
E---4~--4~----4~-----4~--4~----4~----7~--------7~----7~--------7~-----------|
A-4~------------4~-4~------------4-0~----0~------0-0~----0~------0~---------|
E---------------------------------------------------------------------------|

e---------------------------------------------------------------------------|
B---------0~------0~------0~--------------0~--------------0~----------------|
A-----0~----0~------0~------0~--------6~----6~--------6~----6~--------------|
E---4~--4~----4~------4~------4~----7~--------7~----7~--------7~------------|
A-4~------------4~------4~------4-0~----0~------0-0~----0~------0~----------|
E---------------------------------------------------------------------------|

e---------------------------------------------------------------------------|
B---------0~---------------0~--------------0~------------0~-----------------|
A-----0~----0~---------0~----0~--------6~----6~------6~------6~-------------|
E---4~--4~----4~-----4~--4~----4~----7~--------7~---------------------------|
A-4~------------4~-4~------------4-0~----0~------0-0~--0~--0~--0~-----------|
E---------------------------------------------------------------------------|

Chorus III: x 1 (same as Chorus I and II)

Outro: x 1

e---------------------------------------------------------------------------|
B-----------0~--------------0~--------------0~--------------0~--------------|
A-------------4~--------------4~--------------4~--------------4~------------|
E-------0~------0~------0~------0~------0~------0~------0~------0~----------|
A-----0~--0~----------0~--0~----------0~--0~----------0~--0~----------------|
E-5-5~------------5-5~------------5-5~------------5-5~----------------------|

e---------------------------------------------------------------------------|
B-----------0~--------------0~--------------0~--------------0~--------------|
A-------------4~--------------4~--------------4~--------------4~------------|
E-------0~------0~------0~------0~------0~------0~------0~------0~----------|
A-----0~--0~----------0~--0~----------0~--0~----------0~--0~----------------|
E-5-5~------------5-5~------------5-5~------------5-5~----------------------|

e---------------------------------------------------------------------------|
B-----------0~--------------0~--------------0~--------------0~--------------|
A-------------4~--------------4~--------------4~--------------4~------------|
E-------0~------0~------0~------0~------0~------0~------0~------0~----------|
A-----0~--0~----------0~--0~----------0~--0~----------0~--0~----------------|
E-5-5~------------5-5~------------5-5~------------5-5~----------------------|

e-----------------0~--------------------------------------------------------|
B---------0~------0~--------------------------------------------------------|
A-----------0~--------------------------------------------------------------|
E-----4~------4~------------------------------------------------------------|
A---2~--2~------2~----------------------------------------------------------|
E-0~------------------------------------------------------------------------|
Tap to rate this tab
# A B C D E F G H I J K L M N O P Q R S T U V W X Y Z