Song name
# A B C D E F G H I J K L M N O P Q R S T U V W X Y Z

Coheed And Cambria - One tab

Artist: Coheed and Cambria
Track: "One"
Album: Year of the Black Rainbow
Tuning: Standard

Tabbed by Larry Jones

There is some random noise on this track; obviously that can not be tabbed out.
What is here is all of the main piano/synth themes transcribed for guitar.  The
only part that is a little difficult to hear is the Piano Theme V; I'm sure I
have it close though.


Key:
/ - slide
. - palm mute
v - vibrato
p - pull off
h - hammer on
~ - let ring
b - bend to sound like the following note
r - release bend
* - natural harmonic

Piano Theme I: x 1

(0:27 - 0:37)

e-10----------------------------------------------------------16-15-13-15-------|
B----13-------13-------------------11----------------10-12-13-------------------|
G-------10-12-------10-13-12----------13-12-10----10----------------------------|
D----------------12----------13-10-------------13-------------------------------|
A-------------------------------------------------------------------------------|
E-------------------------------------------------------------------------------|

(0:37 - 0:48)

e----------10-13-16-15-11-10----------------------------------------------------|
B-10-12-13----------------------------13-------------------11-------------------|
G----------------------------------12-------10-13-12----------13-12-10----10----|
D----------------------------10-13-------12----------13-10-------------13-------|
A-------------------------------------------------------------------------------|
E-------------------------------------------------------------------------------|

(0:48 - 0:56)

e----------16-15-13-15----------10-13-16-15-11----------------------------------|
B-10-12-13-------------10-12-13-------------------------------------------------|
G-------------------------------------------------------------------------------|
D-------------------------------------------------------------------------------|
A-------------------------------------------------------------------------------|
E-------------------------------------------------------------------------------|

Piano Theme II: x 6

(1:12 - 1:54)

e----------------------------------------|
B------8------8-----------8------8-------|
G----8------8------8----8------8------8--|
D-10-----10-----10---10-----10-----10----|
A----------------------------------------|
E----------------------------------------|

(1:12 - 1:54)


Piano Theme III:

First time

e---------------17---19------------------|
B----------------------------------------|
G----------------------------------------|
D----------------------------------------|
A----------------------------------------|
E----------------------------------------|

Next five times

e-20------------17---19------------------|
B----------------------------------------|
G----------------------------------------|
D----------------------------------------|
A----------------------------------------|
E----------------------------------------|

Piano Theme IV: x 5

(1:20 - 1:54)

e-------------11----------------11------------------|
B----13----------13----13----------13----13----13---|
G-------12-------------------12---------------------|
D-13-------13-------13----13----------13----13------|
A---------------------------------------------------|
E---------------------------------------------------|
  ................................................

Piano Theme V: x 1

(1:34 - 1:54)

e------------------------------------------------|
B------------------------------------------------|
G------------------5-------2---------------------|
D-0---1---3---5----5---1---3------0---1---3---5--|
A------------------------------------------------|
E------------------------------------------------|
Tap to rate this tab
# A B C D E F G H I J K L M N O P Q R S T U V W X Y Z