Song name
# A B C D E F G H I J K L M N O P Q R S T U V W X Y Z

Coheed And Cambria - Far Acoustic tab

                                Far
                     by Choeed and cambria
                       tabbed by damaster
this is the version played at http://www.youtube.com/watch?v=F5A_Xh3uHPE
 its pretty cool, tuning is a half step down. there are only two different
 parts to this song : the Verse and the Chorous both of which i have
 tabbed. so just listen to the recording to find the number of times each
 is played and the rhythem for the notes. hope this helps you


Verse
 eb-----------------------I\--------|
 bb------------9----------I-\-------|
 Gb------11-------11------I--\------|
 Db---11-------------11---I---/-X2--|
 Ab-9-------9-----------9-I--/------|
 Eb-----------------------I/--------|

 eb-----------------------I\--------|
 bb------------7----------I-\-------|
 Gb------9-------9--------I--\------|
 Db---9------------9------I---/-X2--|
 Ab-7-------7----------7--I--/------|
 Eb-----------------------I/--------|

 eb-----------------------I\--------|
 bb------------5----------I-\-------|
 Gb------7-------7--------I--\------|
 Db---7------------7------I---/-X2--|
 Ab-5-------5---------5---I--/------|
 Eb-----------------------I/--------|

 eb-----------------------I\--------|
 bb------------2-------2--I-\-------|
 Gb------2-------2--------I--\------|
 Db---2-----------2-------I---/-X2--|
 Ab-0------0---------0----I--/------|
 Eb-----------------------I/--------|


 Chorous
 eb-----------------------I\---------|
 bb------------5----------I-\--------|
 Gb------7-------7--------I--\-------|
 Db---7------------7------I---/-X2---|
 Ab-5-------5---------5---I--/-------|
 Eb-----------------------I/---------|

 eb------------------------I\--------|
 bb------------------------I-\-------|
 Gb-----------6------------I--\------|
 Db-------7------7---------I---/-X2--|
 Ab-----7----------7-------I--/------|
 Eb--5------5--------5-----I/--------|

 eb-------------------------------|
 bb------------7-------------7----|
 Gb------9-------9-----------9----|
 Db---9------------9---------9----|
 Ab-7-------7----------7-----7----|
 Eb-------------------------------|
Tap to rate this tab
 
# A B C D E F G H I J K L M N O P Q R S T U V W X Y Z