Song name
# A B C D E F G H I J K L M N O P Q R S T U V W X Y Z

Coheed And Cambria - Welcome Home tab

|---3---|  |---3---|  |---3---|  |---3---|    |---3---|  |---3---|
   E  E    E  E  E    E  E  E    E  E  E    E    E  E    E  E  E    E  E     +Q    E
|---------------------------------------------|--------------------------------------|
|-15p12p10---15p12p10---15p12p10---15p12p10---|-15p12p10---15p12p10---15b17-(15)-----|
|---------------------------------------------|--------------------------------------|
|---------------------------------------------|--------------------------------------|
|---------------------------------------------|--------------------------------------|
|---------------------------------------------|--------------------------------------|
|
  Q        E  E  Q        +E   E    Q     +Q       Q     E  E
|-17b19----17-15-15b17r===(15)----|----------------------------|
|------------------------------17-|-17----(17)\----------15-17-|
|---------------------------------|---------------/16----------|
|---------------------------------|----------------------------|
|---------------------------------|----------------------------|
|---------------------------------|----------------------------|
|
   E  E  E  E  E  E  E  E    E  E  E  E  E  E  S  S  S  E
|-12s14-17-17-14-15-15-12-|-14-14----12-12----------------|
|-------------------------|-------15-------13-12h13p12----|
|-------------------------|----------------------------14-|
|-------------------------|-------------------------------|
|-------------------------|-------------------------------|
|-------------------------|-------------------------------|
|
|--------------------------|-------------------|
|-12----------12-12s17-----|-------------------|
|----12-14-15--------------|-7s9-(9)-----------|
|--------------------------|-------------------|
|--------------------------|-------------------|
|--------------------------|-------------------|
|
   PM-----|                                                   ~~~~~~~~~~~~
   |---3---|
   E  E    E  Q        +E   +Q      E       +Q.      S  S  S  S  +E   +E   S  S
|---------12-10b12====(10)-(10)r---10b12r|=(10)---------------------------------|
|-10-12----------------------------------|----------12p10-12s13-(13)-(13)-15h17-|
|----------------------------------------|--------------------------------------|
|----------------------------------------|--------------------------------------|
|----------------------------------------|--------------------------------------|
|----------------------------------------|--------------------------------------|
|
                                                        PM-------|   ~~~~
                                                  |--3--|  |--3--|
   +E      +E   +Q.       +S   E        +E.      +Q     E  E E   E   Q.       S S
|---------------------------------------------|------------------0-----------------|
|-(17)b20-(17)-(17)------(17)-17b20r===(17)---|-(17)---------0---------------------|
|---------------------------------------------|------------0-------[12]---------0--|
|---------------------------------------------|---------0--------------------------|
|---------------------------------------------|------------------------------------|
|---------------------------------------------|------------------------------------|
|
                        ~~
   |--------3---------|
   E  E    E  E  E    E  H          +Q.     E E E E S S
|--------------------------------|----------------------|
|--------------------------------|----------------------|
|-16p14---16----14---------------|----------------------|
|------------17------16----------|------------------4h5p|
|-----------------------17-------|-(17)s====0-3h5-------|
|--------------------------------|----------------------|
|
                           ~
  S S E Q.     E S E   S   Q   +E  E E Q.
|------------------------|-------------------|
|------------------------|-------------------|
|------------------------|-------------------|
|-4p2p0--------2---4-----|-5---(5)-4-2-0-----|
|------------------------|-------------------|
|------------------------|-------------------|
|
                                                       ~~
            |--3--|  |--3--|
   E  E  E  S  S  S  S  S  S  E  E  E    E  S  S  Q    H
|-------------------------------------|------------------------|
|----10-12-13h15p13p12h13p12-10-12-10-|------------------------|
|-11----------------------------------|-12-11h12p11---11-------|
|-------------------------------------|------------------------|
|-------------------------------------|------------------------|
|-------------------------------------|------------------------|
|
                   ~~                           ~~~
   E +E     +Q     H            E +E     +Q     Q.       E
|----------------------------|------------------------------|
|----------------------------|------------------------------|
|--9-(9)b11r(9)--------------|--9-(9)b11r(9)----------------|
|------------------9---------|------------------9-----------|
|----------------------------|------------------------------|
|----------------------------|------------------------------|
|
                          ~~              ~~      ~~~~~~~
   Q       E  E  S  S  E  Q      S  S  E  Q    E  E  +Q
|-17b19---17-15-17p15---------|----------------------------|
|---------------------17-17---|-17p15----------------------|
|-----------------------------|-------16-16---16-14-(14)---|
|-----------------------------|----------------------------|
|-----------------------------|----------------------------|
|-----------------------------|----------------------------|
|
                         ~~~~~~~~~~~                            ~~~
  |-3-| |--3--| |--3--|
  Q   E E E   E E E   E  Q      +E  E S  E   S  E      +E    E  E
|---------------7------------|------------------------------10----|
|-------------8---8-----10---|-(10)-8---10-----10b12==(10)r----10-|
|-----9-7-9-----------9------|------------------------------------|
|----------------------------|------------------------------------|
|----------------------------|------------------------------------|
|----------------------------|------------------------------------|
|
 ~~~~~~~~~~~~~
   +Q     +E  S S S. S   e   S. S S   +S  S S S +H.
|-----------------------------------|-------------------------|
|-(10)---(10)-8---7------8---7------|-----7-8-7-(7)-----------|
|---------------------------------9-|-(9)---------------------|
|-----------------------------------|-------------------------|
|-----------------------------------|-------------------------|
|-----------------------------------|-------------------------|
|
                                                        ~
      |--3--| |--3--| |--3--|   |--3--| |--3--| |--3--|
  Q   E E   E E E   E E E   E   E E   E E E   E E E   E Q
|---------------------7p0-----|-8p0-----7p0-----------------|
|-0---7p5p==0-8p5p==0-------0-|-------0-------0-8p5p==0-7---|
|-----------------------------|-----------------------------|
|-----------------------------|-----------------------------|
|-----------------------------|-----------------------------|
|-----------------------------|-----------------------------|
|
                                                                    ~~
         |--3--|  |--3---|  |--3--|    |--3---|  |--3--|  |--3---|
   Q     E E   E  E E    E  E E   E    E E    E  E E   E  E E    E  Q
|---------------------------7p0-----|--8p0-------7p0--------------------|
|--------7p5p==0--8p5p===0--------0-|---------0--------0--8p5p===0--7---|
|--5--------------------------------|-----------------------------------|
|-----------------------------------|-----------------------------------|
|-----------------------------------|-----------------------------------|
|-----------------------------------|-----------------------------------|
|
           PM      PM  PM    PM   PM  PM
      |--3--| |--3--|
  Q   E E   E E E   E E E   E E  E E E E Q
|---------------------7---|-8---10---8---7---|
|-----7p5-----8p5---------|------------------|
|-7---------7-------7---7-|---7----7---7-----|
|-------------------------|------------------|
|-------------------------|------------------|
|-------------------------|------------------|
|
       |--3--|     |--3--|       |--3--|
   Q   E E   E Q   E E   E   Q   E E   E Q.     E
|--------------3-----------|-3-----------3----------||
|------5p3p==0-----5p3p==0-|-----5p3p==0------------||
|-/4-----------------------|------------------------||
|--------------------------|------------------------||
|--------------------------|------------------------||
|--------------------------|------------------------||
|
Tap to rate this tab
# A B C D E F G H I J K L M N O P Q R S T U V W X Y Z