Song name
# A B C D E F G H I J K L M N O P Q R S T U V W X Y Z

Coheed And Cambria - Wake Up tab

-------------------------------------------------------------------------------
			     Wake Up - Coheed and Cambria
-------------------------------------------------------------------------------

Simple but awesome. Based off this cover: http://www.youtube.com/watch?v=RZjRiPYMDWk

Capo 4th

Verses:

e|---------------------------------------------------------------------------|
B|----3---------3------------------------------------------------------------|
G|------0---------0---------------0---2-----2p0------------------------------|
D|--------0---------0-----------0-------0------------------------------------|
A|--3---------3---------------2-----------0----------------------------------|
E|----------------------0h2h3---------2--------------------------------------|

Chorus:

e|---------------------------------------------------------------------------|
B|-------------------------3---3---3---3p0---0---1---1---1--1p0---3---3---3--|
G|-----------------------------------------2-----2---2---2------2------------|
D|-----------0---------------------------------------------------------------|
A|---------2---2---2-----3---3---3-------------0---0---0------------3---3----|
E|---0h2h3-------3---3-------------------------------------------------------|

Tap to rate this tab
# A B C D E F G H I J K L M N O P Q R S T U V W X Y Z