Song name
# A B C D E F G H I J K L M N O P Q R S T U V W X Y Z

Coheed And Cambria - Wake Up tab

Standard Tuning
Capo 4th Fret - (All tabs relavent to capo)
This song is fairly simple, as long as you get the timing down.
I tried my hardest to get the pick pattern in the tab but, we all know how misleading tabs can be.
My best advice is to listen to the recording and get the timing down pat.
It This tab is 100% correct as far as my ear goes (and that's pretty far).

~ Intro & Verse ~
play from: "I'm gonna ride this plane"
to:  "I love you"
e-----------------------------------------------------------|
b---3---------3--3------------------------------------------|
g------0------------0-------------------0---2---------2p0---|
d---------0------------0-------------0---------0------------|
a---3---------3--3--------0-------2---------------0---------|
e------------------------------2h3----------2---------2-----|

~ Chorus ~
play from: "The morning will come"
to: "Decide to wake up"
e-------------------------3-----3----3-----3----|
b-------------------------3-----3----3-----3----|
g-----------0-----------------------------------|
d---------0-------------------------------------|
a-------2----------2--2-3----3----3----3--------|
e---2h3----------3-- 3--------------------------|

e-------------------------------------------------|
b----1----1----1----1----1---1---0----0-----------|
g----2----2----2----2----0---0---0----0-----------|
d-------------------------------------------------|
a-------------------------------------------------|
e--0---0----0----0----3----3---3----3-------------|
play entire riff 2x
Tap to rate this tab
# A B C D E F G H I J K L M N O P Q R S T U V W X Y Z