Song name
# A B C D E F G H I J K L M N O P Q R S T U V W X Y Z

Coheed And Cambria - Sentry The Defiant tab

-------------------------------------------------------------------------------
                                      Sentry the Defiant - Coheed and Cambria
-------------------------------------------------------------------------------
Tabbed by:TLO4SHEELO

Tuning:B-tuning(BEADF#b)

Intro
e|--------7---------------------7--------------------------------------------|
B|------5---5------8-7b-------5---5------8-7b--------------------------------|
G|----4----------5----------4----------5-------------------------------------|
D|---------------------------------------------------------------------------|
A|---------------------------------------------------------------------------|
E|-0----------------------0--------------------------------------------------|

Pre-Verse
e|---------------------------------------------------------------------------|
B|---------------------------------------------------------------------------|
G|-9------------------------------9------------------------------------------|
D|-9--2--9---10--7--7--10--3------9--2--9---10--7--7--10--3------------------|
A|-7--2--10--10--7--7--10--3------7--2--10--10--7--7--10--3------------------|
E|----0------8---5--5--8---1---------0------8---5--5--8---1------------------|

Verse [palm mute]
e|---------------------------|-----------------------------------------------|
B|---------------------------|-----------------------------------------------|
G|-9-------------------------|-----------------------------------------------|
D|-9--2--9---10--7--7--10--3-|-----------------------------------------------|
A|-7--2--10--10--7--7--10--3-|---x4------------------------------------------|
E|----0------8---5--5--8---1-|-----------------------------------------------|

Chorus
e|---------------------------------------------------------------------------|
B|---------------------------------------------------------------------------|
G|----5-----------------------------5-----5-------5--------------5-----------|
D|-2--5--7--------5--------------2--5--7--5----2--5--7--10----2--5--7--7-----|
A|-2--3--7----------3p2-3p2p0----2--3--7--3----2--3--7--10----2--3--7--7-----|
E|-0-----5--5-3-3----------------0-----5-------0-----5--8-----0-----5--5-----|

Pre-Verse

Verse [palm mute]

Chorus

Bridge
e|---------|----------------------------------|------------------------------|
B|---------|----------------------------------|------------------------------|
G|---------|----------------------------------|--------5---------------------|
D|-10--3---|-9---------9---------9------------|-x2-----5--7--2---------------|
A|-10--3---|-7--9--10--7--9--10--7--9--10--7--|--------3--7--2---------------|
E|-8---1---|----10--8-----10--8-----10--8--5--|-----------5--0---------------|
(ohh im alive..)                                     (goodbye...)

Intro

Pre-verse

Chorus

Verse - End on C in last progression, which would be G in this tuning.

*could not figure out the breakdown so I left it out. It comes between the 2nd 
chorus and the bridge.


************************************

| /   slide up
| \   slide down
| h   hammer-on
| p   pull-off
| ~   vibrato
| +   harmonic
| x   Mute note
| b   Bend
| pb  Pre-bend
| br  Bend release
| pbr Pre-bend release
| brb Bend release bend

************************************
Tap to rate this tab
 
# A B C D E F G H I J K L M N O P Q R S T U V W X Y Z