Song name
# A B C D E F G H I J K L M N O P Q R S T U V W X Y Z

Coheed And Cambria - Junesong Provision Acoustic tab

Played in Drop D tuning; ENJOY! :D

E
b
g
d
a
D

--------------------------------------------------------|
--------------------------------------------------------|
--------------------------------------------------------|
-9-9--0-0--4-4--0--0-0--7--7-7-7-7-7-7-7-7-7--7-7-7-7-7-|
-9-9--0-0--5-5--0--0-0--5--5-5-5-5-5-5-5-5-5--5-5-5-5-4-|
-9-9--0-0--4-4--0--0-0--5--5-5-5-5-5-5-5-5-5--X-X-X-X-X-| X4

--------------------------------------------------------|
--------------------------------------------------------|
--------------------------------------------------------|
-9-9--0-0--4-4--0--0-0--7--7-7-7-7-7-7-7-7-7--7-7-7-7-7-|
-9-9--0-0--5-5--0--0-0--5--5-5-5-5-5-5-5-5-5--5-5-5-5-4-|
-9-9--0-0--4-4--0--0-0--5--5-5-5-5-5-5-5-5-5--X-X-X-X-X-| X4

----------------|
----------------|
----------------|
-0------4-0-----|
-0------5-0-----|
-0------4-0-----|

------------------------------------------------------------------------|
------------------------------------------------------------------------|
---12----12------12---12------------------------------------------------|
-----12----12------12---12--12-12-12-12-12-12-12--12-14-12-12-14-12-12--|
-10----10----10-9----0------10-10-10-10-10-10-10--10-10-10-10-10-10-10--| X3
----------------------------10-10-10-10-10-10-10--10-10-10-10-10-10-10--|

---------------------------------------------------------------------|
---------------------------------------------------------------------|
---12----12------12---12---------------------------------------------|
-----12----12------12---12--12-12-12-12-12--12-14-12-12-14-12-12-10--|
-10----10----10-9----0------10-10-10-10-10--10-10-10-10-10-10-10-10--|
----------------------------10-10-10-10-10--10-10-10-10-10-10-10-10--|
(not the perfect strumming but easy if you listen)

------------------------------------|
------------------------------------|
------------------------------------|
---7----------------------7-----7---|
--5---------------------------------|
-0---0h5-5-5-5-5/7-7-7-8-8-8-8-8----| X3

----------------------------------------------|
----------------------------------------------|
----------------------------------------------|
---7----------------------7-----7-----7-----7-|
--5-------------------------------------------|
-0---0h5-5-5-5-5/7-7-7-8-8-8-8-8-8-8-8-8-8-8--|

--------------9------------------------------9-------------|
--------7-------5---7-5------------7-----------5---7-5-----|
----7-----7-6-----------7------7-----7---7-6-----------7---|
-0-------------------------0-------------------------------|
-0-------------------------0-------------------------------|
-0-------------------------0-------------------------------|

--------------9---------------------------|
--------7-------5---7-5-------------------|
----7-----7-6-----------7-----------------|
-0-------------------------7----7---------|
-0-------------------------5X12-4X12------|
-0-------------------------5----4---------| X2

---------------------------|
---------------------------|
---------------------------|
-5-4-0-0-4h5p4-0-0-7-5-----|
-5-4-0-0-4h5p4-0-0-7-5-----|
-5-4-0-0-4h5p4-0-0-7-5-----|

--------------------------------------------------------|
--------------------------------------------------------|
-44--44--44--44--44--44--44--44--44--44--44--44---------|
-55--55--55--55--55--55--55--55--55--55--55--55---------|
-55--55--55--55--55--55--55--55--55--55--55--55---------|
--------------------------------------------------------|

--------------------------------------------------------|
--------------------------------------------------------|
-------------------44-44-44-44-44-44-44-44-44-44-44-44--|
-4--0--7--4--0--7--55-55-55-55-55-55-55-55-55-55-55-55--|
-2--0--5--2--0--5--55-55-55-55-55-55-55-55-55-55-55-55--|
-X--0--5--X--0--5---------------------------------------|


--------------------------------------------------------------|
--------------------------------------------------------------|
-------------------------------------44-44-44-44--------------|
-4--0--7--4--0--7--4--0--7--4--0--7--55-55-55-55-44-44-44-44--|
-2--0--5--2--0--5--2--0--5--2--0--5--55-55-55-55-55-55-55-55--|
-X--0--5--X--0--5--X--0--5--X--0--5---------------------------|
Tap to rate this tab
 
# A B C D E F G H I J K L M N O P Q R S T U V W X Y Z