Song name
# A B C D E F G H I J K L M N O P Q R S T U V W X Y Z

Coheed And Cambria - Radio Bye Bye tab

Coheed And Cambria
"Radio Bye Bye"
No World For Tomorrow
2008

This isn't an intro, it's the chorus. They should put this option in the "What part:" 
section when puttin' in tabs.

I looked at a tab for this song and notice the lead chorus sounded wrong when i played 
it from that. Played around and figured out the real notes to the lead chorus.

Lead

e-----------------------------------    e----------------------------------|
B------------------------8-8--------    B----------------------------------|
G--------9-9------------------------ or G--------9-9-------------12-12-----|
D--10-10-----10----10-10-----10-----    D--10-10-----10----10-10------10---|
A---------------8----------------8--    A---------------8----------------8-|
E-----------------------------------    E----------------------------------|

e----------------------------|
B----------------------------|
G------7-7----------5-5------|
D--7-7-----7----7-7-----7----|
A------------5------------5--|
E----------------------------|

e----------------------------|
B----------------------------|
G----------------------------|
D------7-7----------5-5------|
A--7-7-----7----7-7-----7----|
E------------5------------5--|

e----------------------------|
B----------------------------|
G----------------------------|
D------5-5----------5-5------|
A--5-5-----5----5-5-----5----|
E------------3------------3--|

Tabbed by X8<-(Triggar8)->8X

Enjoy.
Tap to rate this tab
 
# A B C D E F G H I J K L M N O P Q R S T U V W X Y Z