Song name
# A B C D E F G H I J K L M N O P Q R S T U V W X Y Z

Coheed And Cambria - The Afterman tab

-------------------------------------------------------------------------------
                             The Afterman announcement music - Coheed and Cambria
-------------------------------------------------------------------------------
Tabbed by: TheAfterman (Jordan Williams)
E-mail: ibanezer21@gmail.com

Tuning: Standard, EADGBE

Section A
e|---------------------------------------------------------------------------|
B|---------------------------------------------------------------------------|
G|----7---7---7---7---7---7---7---7---7--7--7--7--7--7--7--7-----------------|
D|---8---8---8---8---8---8---8---8---8--8--8--8--8--8--8--8------------------|
A|-10--10--10--10--10--10--10--10---6--6--6--6--6--6--6--6-------------------|
E|---------------------------------------------------------------------------|
Section B
e|---------------------------------------------------------------------------|
B|---------------------------------------------------------------------------|
G|---------------------------------------------------------------------------|
D|----5--5--5--5--5--5--5--5---5--5--5--5--5--5--5--5------------------------|
A|---6--6--6--6--6--6--6--6---6--6--6--6--6--6--6--6-------------------------|
E|--8--8--8--8--8--8--8--8---4--4--4--4--4--4--4--4--------------------------|

LEAD GUITARS
Lead A
e|---------------------------------------------------------------------------|
B|--11-------11--10--8-------------------------11-------11--10--8------------|
G|---------------------10--8-------8--7----------------------------10--8-----|
D|---------------------------------------10--8-------------------------------|
A|---------------------------------------------------------------------------|
E|---------------------------------------------------------------------------|
                       LEAD B
e|-------------------|-----------10--------------------10-----------------------|
B|-------------------|10--11-13-----11-10---10--11-13---------------------------|
G|--8--7-------------|----------------------------------------------------------|
D|-------10--8-------|----------------------------------------------------------|
A|-------------------|----------------------------------------------------------|
E|-------------------|----------------------------------------------------------|

e|---------------------------------------------------------------------------|
B|---------------------------------------------------------------------------|
G|--8--7-------8--7----------------------------------------------------------|
D|------10--8-------10--8----------------------------------------------------|
A|---------------------------------------------------------------------------|
E|---------------------------------------------------------------------------|

Over 2nd section of song
Lead C
e|-------------8-10-----8-------------------------------------------------------|
B|--8----10-11-----------11-10-----10--11--10-----------------------------------|
G|-------------------------------10----------10---------------------------------|
D|------------------------------------------------------------------------------|
A|------------------------------------------------------------------------------|
E|------------------------------------------------------------------------------|

RHYTHM GUITAR STRUCTURE
Section A x 2
Section B x 2
Section A x 2
Section B x 2
Section A x 1
Section B x 1

Lead STRUCTURE
Lead A x 1
Lead B x 1
Lead C x 2
Lead B x 1

************************************

| /   slide up
| \   slide down
| h   hammer-on
| p   pull-off
| ~   vibrato
| +   harmonic
| x   Mute note
| b   Bend
| pb  Pre-bend
| br  Bend release
| pbr Pre-bend release
| brb Bend release bend

************************************
Tap to rate this tab
 
# A B C D E F G H I J K L M N O P Q R S T U V W X Y Z