Song name
# A B C D E F G H I J K L M N O P Q R S T U V W X Y Z

Coheed And Cambria - Sentry The Defiant tab

this is my first tab ever and timings probably wayy off so please be nice..the other tab 
on here needed some minor tweaks and here they are..thank you to 'TLO4SHEELO' for the 
original tab.
SENTRY THE DEFIANT-COHEED AND CAMBRIA,
LYRICS/MUSIC BY CLAUDIO SANCHEZ

INTRO-PLAYED TWICE
B |----7------------------------------|
F#|--5---5-5~----8-7b-----------------|
D |------------5----------------------|
A |-----------------------------------|
E |-----------------------------------|
B |0----------------------------------|

pre/verse-play twice unmuted(preverse),then about four times muted(main verses).on the 
last time muted before the chorus, play the last five chords unmuted.
|---------------------------------------------------------------------|
|---------------------------------------------------------------------|
|-9-9-----------------------------------------------------------------|
|-9-9-x-2-2-2-x--9--9-x--10--10-10--7------x--10-10-x--3-3-3----------|
|-7-7-x-0-0-0-x-10-10-x--10--10-10--7-(x8)-x--10-10-x--3-3-3----------|
|-----x-0-0-0-x--0--0-x---8--8--8---5------x--8--8--x--1-1-1----------|

Chorus
|--------------------------------------------------------------------------|
|--------------------------------------------------------------------------|
|---5-----------------------------5-----5-------5--------------5-----------|
|2--5--7--------5--------------2--5--7--5----2--5--7--10----2--5--7--7-----|
|2--3--7----------3p2-3p2p0----2--3--7--3----2--3--7--10----2--3--7--7-----|
|0-----5--5-3-3----------------0-----5-------0-----5--8-----0-----5--5-----|

Bridge
|----------------------------------|-------------------------------|
|----------------------------------|-------------------------------|
|----------------------------------|---------5---------------------|
|-9--------9------9----------------|--x2-----5--7--2---------------|
|-7--10-9--7-10-9-7--10--9--7------|---------3--7--2---------------|
|-----8-7-----8-7----8---7--5------|------------5--0---------------|

breakdown thing-this was really hard to try to tab and this is sort of
something to build on,work with it and im sure youll make it sound right.
|------------------------------------------------|
|------------------------------------------------|
|------------------------------------------------|  (x2)
|-3-x-2-------5---7---9---7---5------------------|
|-3-x-2h3p0---5---7---9---7---5---2h3p0----------|
|-1-x-0-----x-3-x-5-x-7-x-5-x-3-x----------------|




LEGEND
|  ~-slight bend
|  b-full bend
|  x-muted note

thats all,please rate,please enjoy,please comment :D-
bcrichplayer71.
Tap to rate this tab
 
# A B C D E F G H I J K L M N O P Q R S T U V W X Y Z