Song name
# A B C D E F G H I J K L M N O P Q R S T U V W X Y Z

Coheed And Cambria - Domino The Destitute tab

-------------------------------------------------------------------------------
    Key Entity Extraction I: Domino: The Destitute - Coheed & Cambria 
-------------------------------------------------------------------------------
Tabbed by: Errold Tumque (cursedreject)
E-mail: cursedreject@gmail.com

Tuning: standard 

this intro is included in their Rialto Theatre Tucson, Arizona show (8/7/12)
http://www.youtube.com/watch?v=uF57gY785_w

Claudio uses some wah-wah but that's optional obviously

e|---------------------------------------------------------------------------|
B|---------------------------------------------------------------------------|
G|------7-7~---5-7-8b--------------------5-7-8~--12b-------8b----------------|
D|--/5---------------8-7~---/8-7-------5------------12-12-----10-10----------|  x2
A|-------------------------------8-5h6---------------------------------------|
E|---------------------------------------------------------------------------|

e|-15-15-15------------------------------------------------------------------|
B|----------15-15-15-16-16-16----------15-15-15----------13-13-13------------|
G|----------------------------17-17-17----------15-15-15----------14-14-14---|  x4
D|---------------------------------------------------------------------------|
A|---------------------------------------------------------------------------|
E|---------------------------------------------------------------------------|

e|-----------------------------|
B|---8-6--(x4)--------(x4)-----|
G|---------------8-7-----------|
D|-5-----------5---------------| x4
A|-----------------------------|
E|-----------------------------|




************************************

| /   slide up
| \   slide down
| h   hammer-on
| p   pull-off
| ~   vibrato
| +   harmonic
| x   Mute note
| b   Bend
| pb  Pre-bend
| br  Bend release
| pbr Pre-bend release
| brb Bend release bend

************************************
Tap to rate this tab
 
# A B C D E F G H I J K L M N O P Q R S T U V W X Y Z