Song name
# A B C D E F G H I J K L M N O P Q R S T U V W X Y Z

Coheed And Cambria - Goodnight Fair Lady tab

-------------------------------------------------------------------------------
                             Goodnight, Fair Lady - Coheed and Cambria
-------------------------------------------------------------------------------
Tabbed by: Zack Dedonis
Tuning:

Main Riff:
        
e|---------------------------------------------------------------------------|
B|---------------------------------------------------------------------------|
G|------------------------------------------------------7-7---5---5--7-------|
D|----3-------2-3-----------------------------8-8--8----7-7---5---5--7-------|
A|----3----0------3------3---7-5---7-5--------8-8--8----5-5---3-0-3--5-------|
E|----1--------------------------8-----8------6-6--6-------------------------|

Short Riff

e|---------------------------------------------------------------------------|
B|---------------------------------------------------------------------------|
G|-----------5---3-----------------------------------------------------------|
D|----3------5---3----7-7----5---5---7---------------------------------------|
A|----3------3---1----5-5----3-0-3---5---------------------------------------|
E|----1----------------------------------------------------------------------|


That should be enough to get you started.   The rest is really pretty easy to 
figure out from here and uses all the same chords.

************************************
Tap to rate this tab
# A B C D E F G H I J K L M N O P Q R S T U V W X Y Z