Song name
# A B C D E F G H I J K L M N O P Q R S T U V W X Y Z

Coheed And Cambria - The Afterman tab

-------------------------------------------------------------------------------
                            The Afterman - Coheed and Cambria
-------------------------------------------------------------------------------

Tuning: Eb Ab Db Gb Bb eb (Half step down)


Lead Guitar (Travis)
e|---------------------------------------------------------------------------|
B|---------------------------------------------------------------------------|
G|--16-xx-19-xxxx--xx-16-xx--xx-16-16-19-17-14-------------------------------|
D|---------------19--------17------------------------------------------------|
A|---------------------------------------------------------------------------|
E|---------------------------------------------------------------------------|

Rhythm Guitar (Claudio)
e|---------------------------------------------------------------------------|
B|---------------------------------------------------------------------------|
G|---------------------------------------------------------------------------|
D|---4-4h5-5p4--4-4-4------4-4h5-5p4---4-4-4---------------------------------|
A|--5-5----------5-5-5----5-5-----------5-5-5--------------------------------|
E|-3------3---3----------3------3---3----------------------------------------|

e|---------------------------------------------------------------------------|
B|---------------------------------------------------------------------------|
G|---4-4h5-5p4--4-4--------4-4h5-5p4--4-4------------------------------------|
D|--5-5--------5-5-5-2----5-4--------5-5-5-2---------------------------------|
A|-3------3-----------5--3------3-----------5--------------------------------|
E|---------------------------------------------------------------------------|

Rhythm Guitar (Claudio) 
Your selfishness has robbed you...
e|---------------------------------------------------------------------------|
B|---------------------------------------------------------------------------|
G|---------------------------------------------------------------------------|
D|---2--2--2--2--2----7-5--7-5--7-5--7-5--7-5~---4---4---4---4--4~-----------|
A|--2--2--2--2--2-2-----------------------------5---5---5---5--5-------------|
E|-0--0--0--0--0-----5----5----5----5----5-----3---3---3---3--3--------------|

e|---------------------------------------------------------------------------|
B|---------------------------------------------------------------------------|
G|---------------------------------------------------------------------------|
D|-4444-4444-4444-4444-4444-4444-4444-4444-----------------------------------|
A|-5555-5555-5555-5555-5555-5555-5555-5555-----------------------------------|
E|-3333-3333-3333-3333-3333-3333-3333-3333-----------------------------------|

Rhythm Guitar (Claudio)(Distortion)
If he's not here then where...
e|---------------------------------------------------------------------------|
B|---------------------------------------------------------------------------|
G|---------------------------------------------------------------------------|
D|-55555---55555---55-55---55555---55555--55-55------------------------------|
A|-55555---55555---55-55---55555---55555--55-55------------------------------|
E|-33333---33333---33-33---33333---33333--33-33------------------------------|

e|-33333---33333---33-33---33333---33333-------------------------------------|
B|-33333---33333---33-33---33333---33333-------------------------------------|
G|-55555---55555---55-55---55555---55555-------------------------------------|
D|-55555---55555---55-55---55555---55555---5p0-5p0-5p0-5p0-5p0---------------|
A|-33333---33333---33-33---33333---33333--5---5---5---5---5------------------|
E|---------------------------------------------------------------------------|

Outro Lead (Claudio)(Distorted) (x2)
e|---------------------------------------------------------------------------|
B|---------------------------------------------------------------------------|
G|-12-11~---------------12-11~-----------------------------------------------|
D|-------9--12-----10~9-------9--12--------9---------------------------------|
A|------------10-12----------------10-12~12-12-------------------------------|
E|---------------------------------------------------------------------------|
Tap to rate this tab
 
# A B C D E F G H I J K L M N O P Q R S T U V W X Y Z