Song name
# A B C D E F G H I J K L M N O P Q R S T U V W X Y Z

Coheed And Cambria - Subtraction tab

Its really hard to pin point who plays this but i think its Claudio but i could be 
wrong anyway enjoy!

Verses:

(x 2) (x 2) (x 2) (x 1)
E|-------------------|---------------------|----------0-|-------------0-|
B|-------------------|---------------------|----1---1---|-------1---1---|
G|-----4-----4-5-4-0-|-----2---------------|------0-----|-----0---------|
D|---5-----5---------|---0------0-2-0------|--3---------|---0-----------|
A|-3-----3-----------|---------------------|------------|-3-------3-----|
E|-------------------|-3------3-------3--0-|------------|---------------|


Choruses:

(x 4) (x 1) (x 1)
E|-------------|-----------5-|-----------3-|
B|-------------|---------5---|---------3---|
G|-------------|-------5-----|-------4-----|
D|-----5-------|-----7-------|-----5-------|
A|---3---3-5-3-|---7---------|---5---------|
E|-1-----------|-5-----------|-3-----------|


Outro:

(Strum each chord 12 times)
E|-------------------------------------|
B|-------------------------------------|
G|-5--------10-------------------------|
D|-5--------10-------7--------5--------|
A|-3--------8--------7--------5--------|
E|-------------------5--------3--------|
Tap to rate this tab
# A B C D E F G H I J K L M N O P Q R S T U V W X Y Z