Song name
# A B C D E F G H I J K L M N O P Q R S T U V W X Y Z

Coheed And Cambria - Dark Side Of Me tab

Song Title: Dark Side of Me
Band Name: Coheed and Cambria
Album Name: The Afterman: Decension [2012]
Track No.: 8

Transcribed by: Keno Ventolero (jk_ventolero@yahoo.com.ph)

Tuning: Half-Step Down [eb Bb Gb Db Ab Eb]

==========================================
Intro: 

   C#m                   A
|---------------------|------------------|
|--0------------------|--2---------------|
|----1---1-----1------|----1---1-----1~--|
|------2---2-----(2)--|------2-----2-----|
|--4---------4--------|--0-------0-------|
|---------------------|------------------|

   B
|--0~----------|--------------|
|------4~--2~--|--4~--2~--0~--|
|--------------|--------------|
|--------------|--------------|
|--------------|--------------|
|--------------|--------------|

[Repeat]

==========================================
Verse:

Guitar 1 (Clean):
   C#m                   A
|---------------------|------------------|
|--0------------------|--2---------------|
|----1---1-----1------|----1---1-----1~--|
|------2---2-----(2)--|------2-----2-----|
|--4---------4--------|--0-------0-------|
|---------------------|------------------|

   B
|--0~----------|--------------|
|------4~--2~--|--4~--2~--0~--|
|--------------|--------------|
|--------------|--------------|
|--------------|--------------|
|--------------|--------------|

Guitar 2 (Distorted, Palm-Muted):
   C#m     A       B
|--------------------------|
|--------------------------|
|--------------------------|
|--6(8x)---2(8x)---4(16x)--|
|--4-------0-------2-------|
|--------------------------|

==========================================
Chorus:

Guitar 1 (Distorted):
   F#m - A - C#m - B
|----------------------|--------------------|
|----7-9-------7-------|--------------------|
|--------9---9---------|--9-8-6-----8\/\/~--|
|--9-------9-----9-----|--------9-6---------|
|------------------(7x)|--------------------|
|----------------------|--------------------|
PM *       *     *

Guitar 2 (Distorted):

|-------------------------------------|
|-------------------------------------|
|-----------2(16x)---6(16x)---4(16x)--|
|--4(16x)---2--------6--------4-------|
|--4--------0--------4--------2-------|
|--2----------------------------------|

[Repeat]

==========================================
Bridge:

Guitar 1:
   A
|--4-----7-----4-----7-----5p4--------|
|----5-----5-----5-----5-------5------|
|------6-----6-----6-----6-------(6)--|
|-------------------------------------|
|-------------------------------------|
|-------------------------------------|
   C#m
|--9------11------12------11--------9------|
|-------------------------------------12~--|
|----9~------9~------9~------9~---9--------|
|------------------------------------------|
|------------------------------------------|
|------------------------------------------|

Guitar 2:
   A        C#m
|-------------------|
|-------------------|
|--2(16x)---4(16x)--|
|--2--------4-------|
|--0--------6-------|
|-------------------|
Tap to rate this tab
# A B C D E F G H I J K L M N O P Q R S T U V W X Y Z