Song name
# A B C D E F G H I J K L M N O P Q R S T U V W X Y Z

Coheed And Cambria - Domino The Destitute tab

|----------------------------------------------------------------------------|
B|----------------------------------------------------------------------------|
G|------7-7b8r7~---5-7-7b8---------------------5-7-8~--10b12-10----8----------|
D|--/5---------------------8-7~---/8-7-------5------------------12---10-10b---|  x2
A|-------------------------------------8-5h6----------------------------------|
E|----------------------------------------------------------------------------|

e|-15-15-15------------------------------------------------------------------|
B|----------15-15-15-16-16-16----------15-15-15------------------------------|
G|----------------------------17-17-17----------15-15-15-17-17-17------------|  x4
D|----------------------------------------------------------------17-17-17---|
A|---------------------------------------------------------------------------|
E|---------------------------------------------------------------------------|

e|-----------------------------|
B|--8-----(x4)--------(x4)-----|
G|----7---------8-7------------|
D|------5-----------5----------| x4
A|-----------------------------|
E|-----------------------------|
Tap to rate this tab
# A B C D E F G H I J K L M N O P Q R S T U V W X Y Z