Song name
# A B C D E F G H I J K L M N O P Q R S T U V W X Y Z

Coheed And Cambria - Wake Up Acoustic tab

-------------------------------------------------------------------------------
                             Wake Up Acoustic - Coheed and Cambria
-------------------------------------------------------------------------------
Tabbed by: Elijah Webb

Tuning: Eb-Ab-Db-Gb-Bb-Eb

Verse

e|----3-------3--------------------------------|
B|------1-------1-----------1-3-----3p1--------|
G|--------0-------0-------0-----0--------------|
D|--3-------3-----------2---------0------------|
A|------------------2h3-------2----------------|
E|---------------------------------------------|

Chorus ("The morning will come")

e|-------------------------3---3---3-3p0--------1---1---1-1p0---0---0---0---0---0--|
B|------------------------------------------------------------3--------------------|
G|---------0--------------------------------------2---2----------------------------|
D|-----0h2---2---2---2p0h3---3---3--------------------------------3---3---3---3----|
A|-0h3---------3---3----------------------3-3h5------------------------------------|
E|---------------------------------------------------------------------------------|

e|-------------------------3---3---3-3p0--------1---1---1-1p0---0-0-|
B|------------------------------------------------------------3-----|
G|---------0--------------------------------------2---2-------------|
D|-----0h2---2---2---2p0h3---3---3--------------------------------3-|
A|-0h3---------3---3----------------------3-3h5---------------------|
E|------------------------------------------------------------------|

************************************

| h   hammer-on
| p   pull-off

************************************
Tap to rate this tab
# A B C D E F G H I J K L M N O P Q R S T U V W X Y Z