Song name
# A B C D E F G H I J K L M N O P Q R S T U V W X Y Z

Coheed And Cambria - Three Evils Embodied In Love And Shadow tab

 THREE EVILS (EMBODIED IN LOVE AND SHADOW) (Bassline)
                        Words by Claudio Sanchez
Music by Coheed and Cambria
Transcribed by sprinklerthief

Gtr I (E A D G) - 'elec.'

 Intro
  Moderate Rock Q=87
 4/4
  Gtr I
  Wx2
|--------||
|--------||
|--------||
|--------||


   Verse
    S S S S S S S S S S S S S S S S   S S S S S S S S S S S S S S S S
||----------------------------------|---------------------------------|
||o---------------------------------|---------------------------------|
||o---------7-7---7-4-4---4-5-5---5-|---------------------------------|
||--5-5---5-------------------------|-5-5---5-0-0---0-2-2---2-3-3---3-|


  S S S S S S S S S S S S S S S S   S S S S S S S S S S S S S S S S
|---------------------------------|---------------------------------|
|---------------------------------|---------------------------------|
|---------7-7-7-7-9-9-9-9-5-5-5-0-|---------------------------------|
|-5-5---5-------------------------|-7-7-7-7-7-7-7-7-7-7-7-7-7-7-7-7-|


  1.,2.
  S S S S S S S S S S S S S S S S     3x
|-------------------------------------||
|------------------------------------o||
|-----------------------------7------o||
|-7-7-7-7-7-7-7-7-7-7-7-7-7-7---------||


  3.
  S S S S S S S S S S S S S E S    S  S  S  S  S  S  S  S  S  S  S  S  S  S  S  S
|-------------------------------|-------------------------------------------------|
|-------------------------------|-------------------------------------------------|
|-------------------------------|-------------------------------------------------|
|-7-7-7-7-7-7-7-7-7-7-7-7-7-9-0-|-10-10-10-10-10-10-10-10-10-10-10-10-10-10-10-10-|


   S  S  S  S  S  S  S  S  S  S  S  S  S  S  S  S
|-------------------------------------------------||
|-------------------------------------------------||
|-------------------------------------------------||
|-10-10-10-10-10-10-10-10-10-10-10-10-10-12-12-12-||


   Chorus
    $
    S S S S S S S S S S S S S S S S   S S S S S S S S S S S S S S S S
||----------------------------------|---------------------------------|
||o---------------------------------|---------------------------------|
||o-------------------------------7-|---------------------------------|
||--5-5-5-5-5-5-5-5-5-5-5-5-5-5-5---|-7-7-7-7-7-7-7-5-2-2-2-2-2-2-2-0-|


                           To Coda
  S S S S S S S S S S S S S S S S   S S S S S S S S S S S S S S S S
|---------------------------------|----------------------------------||
|---------------------------------|---------------------------------o||
|---------------------------------|-------------------5-3---5---3-5-o||
|-3-3-3-3-3-3-3-3-3-3-3-3-3-3-3-3-|-3-3-3-3-3-3-3-3-0-----5---5------||


   Verse
    S S S S S S S S S S S S S S S S   S S S S S S S S S S S S S S S S
||----------------------------------|---------------------------------|
||o---------------------------------|---------------------------------|
||o---------7-7---7-4-4---4-5-5---5-|---------------------------------|
||--5-5---5-------------------------|-5-5---5-0-0---0-2-2---2-3-3---3-|


  S S S S S S S S S S S S S S S S
|---------------------------------|
|---------------------------------|
|---------7-7-7-7-9-9-9-9-5-5-5-0-|
|-5-5---5-------------------------|


                                    1.
  S S S S S S S S S S S S S S S S   S S S S S S S S S S S S S S E
|---------------------------------|--------------------------------||
|---------------------------------|-------------------------------o||
|---------------------------------|-----------------------------7-o||
|-7-7-7-7-7-7-7-7-7-7-7-7-7-7-7-7-|-7-7-7-7-7-7-7-7-7-7-7-7-7-7----||


  2.
  S S S S S S S S S S S S S E S    S  S  S  S  S  S  S  S  S  S  S  S  S  S  S  S
|-------------------------------|-------------------------------------------------|
|-------------------------------|-------------------------------------------------|
|-------------------------------|-------------------------------------------------|
|-7-7-7-7-7-7-7-7-7-7-7-7-7-9-0-|-10-10-10-10-10-10-10-10-10-10-10-10-10-10-10-10-|


                                      D.S. al Coda
   S  S  S  S  S  S  S  S  S  S  S  S  S  S  S  S
|-----------------------------------------------------||
|-----------------------------------------------------||
|-----------------------------------------------------||
|-10-10-10-10-10-10-10-10-10-10-10-10-10-12-12-12-----||


                              Interlude
  &
                              2/4
  S S S S S S S S Q.   S S     +S  S S S S S S S
|--------------------------||--------------------|
|--------------------------||o-------------------|
|--------------------------||o-------------------|
|-3-3-3-3-3-3-3-0-3------2-||--(2)-2-2-2-2-2-2-2-|


 4/4
  S S S S +S  S S S +S  S S S S S S S
|--------------------------------------|
|--------------------------------------|
|---0-4-5-(5)-4-0-2-(2)-----0---7---5--|
|-2---------------------4--------------|


  +S  S S S S S S S S S S S S S S S  3x H..       +S  S
|------------------------------------||-----------------||
|-----------------------------------o||-----------------||
|-(5)-5-5-5-5-5-5-5-5-5-5-5-5-5-0---o||-----------------||
|---------------------------------2--||-2---------(2)-7-||


   Breakdown
    +S  S S S S S S S S S S S S S S S   S S S S S S S S S S S S S S S S
||------------------------------------|---------------------------------|
||o-----------------------------------|---------------------------------|
||o-----------------------------------|-------------------------------5-|
||--(7)-7-7-7-7-7-7-7-7-7-7-7-7-7-7-7-|-7-7-7-7-7-7-7-7-7-7-7-7-7-0-0---|


                                      1.,2.
  +S  S S S S S S S S S S S S S S S   S S E S S E S S S S S S S S  3x
|-----------------------------------|------------------------------||
|-----------------------------------|-----------------------------o||
|-(5)-5-5-5-5-5-5-5-5-5-5-5-5-5-5-0-|-4-4---4-4-------------------o||
|-----------------------------------|-------------5-5-5-5-5-5-5-7--||


                                Bridge
  3.
  S S E S S E S S S S S S S S    +S  S S S S S S S S S S S S S S S
|-----------------------------||-----------------------------------|
|-----------------------------||-----------------------------------|
|-----------------------------||-----------------------------------|
|-9-9---9-9---5-5-5-5-5-5-5-5-||-(5)-5-5-5-5-5-5-5-5-5-5-5-5-5-5-4-|


  +S  S S S S S S S S S S S S S S S
|------------------------------------|
|------------------------------------|
|------------------------------------|
|-(4)-4-4-4-4-4-4-4-4-4-4-4-4-4-0-2--|


  +S  S S S S S S S S S S S S S S S   +S  S S S S S S S S S S S S S S S
|-----------------------------------|------------------------------------|
|-----------------------------------|------------------------------------|
|-----------------------------------|---------------------------------5--|
|-(2)-2-2-2-2-2-2-2-2-2-2-2-2-2-2-0-|-(0)-0-0-0-0-0-0-0-0-0-0-0-0-0-0----|


  +S  S S S S S S S S S S S S S S S   S S S S S S S S S S S S S S S S
|-----------------------------------|----------------------------------|
|-----------------------------------|----------------------------------|
|-(5)-5-5-5-5-5-5-5-5-5-5-5-5-5-5-5-|-5-5-5-5-5-5-5-5---5-4---5-4------|
|-----------------------------------|-----------------5-----5-----5-5--|


  +S  S S S S S S S S S S S S S S S   +S  S S S S S S S S S S S S S S S
|-----------------------------------|------------------------------------|
|-----------------------------------|------------------------------------|
|-----------------------------------|------------------------------------|
|-(5)-5-5-5-5-5-5-5-5-5-5-5-5-5-5-4-|-(4)-4-4-4-4-4-4-4-4-4-4-4-4-4-0-2--|


  +S  S S S S S S S S S S S S S S S   +S  S S S S S S S S S S S S S S S
|-----------------------------------|------------------------------------|
|-----------------------------------|------------------------------------|
|-----------------------------------|---------------------------------5--|
|-(2)-2-2-2-2-2-2-2-2-2-2-2-2-2-2-0-|-(0)-0-0-0-0-0-0-0-2-2-4-4-5-5-5----|


  +S  S S S S S S S S S S S S S S S   S S S S S S S S S S S S S S S S
|-----------------------------------|----------------------------------||
|-----------------------------------|----------------------------------||
|-(5)-5-5-5-5-5-5-5-5-5-5-5-5-5-5-5-|-5-5-5-5-5-5-5-5---5-4---5-4------||
|-----------------------------------|-----------------5-----5-----5-5--||


 Outro
  +S  S S S S S S S S S S S S S S S   +S  S S S S S S S S S S S S S S S
|-----------------------------------|------------------------------------|
|-----------------------------------|------------------------------------|
|-----------------------------------|------------------------------------|
|-(5)-5-5-5-5-5-5-5-5-5-5-5-5-5-5-4-|-(4)-4-4-4-4-4-4-4-4-4-4-4-4-4-0-2--|


  +S  S S S S S S S S S S S S S S S   +S  S S S S S S S S S S S S S S S
|-----------------------------------|------------------------------------|
|-----------------------------------|------------------------------------|
|-----------------------------------|---------------------------------5--|
|-(2)-2-2-2-2-2-2-2-2-2-2-2-2-2-2-0-|-(0)-0-0-0-0-0-0-0-2-2-4-4-5-5-5----|


  +S  S S S S S S S S S S S S S S S   S S S S S S S S S S S S S S S S
|-----------------------------------|----------------------------------|
|-----------------------------------|----------------------------------|
|-(5)-5-5-5-5-5-5-5-5-5-5-5-5-5-5-5-|-5-5-5-5-5-5-5-5---5-4---5-4------|
|-----------------------------------|-----------------5-----5-----5-5--|


    +S  S S S S S S S S S S S S S S S   +S  S S S S S S S S S S S S S S S
||------------------------------------|-----------------------------------|
||o-----------------------------------|-----------------------------------|
||o-----------------------------------|-----------------------------------|
||--(5)-5-5-5-5-5-5-5-5-5-5-5-5-5-5-4-|-(4)-4-4-4-4-4-4-4-4-4-4-4-4-4-0-2-|


  +S  S S S S S S S S S S S S S S S   +S  S S S S S S S S S S S S S S S
|-----------------------------------|------------------------------------|
|-----------------------------------|------------------------------------|
|-----------------------------------|---------------------------------5--|
|-(2)-2-2-2-2-2-2-2-2-2-2-2-2-2-2-0-|-(0)-0-0-0-0-0-0-0-0-0-0-0-0-0-0----|


  +S  S S S S S S S S S S S S S S S   S S S S S S S S S S S S S S S S
|-----------------------------------|-----------------------------------||
|-----------------------------------|----------------------------------o||
|-(5)-5-5-5-5-5-5-5-5-5-5-5-5-5-5-5-|-5-5-5-5-5-5-5-5---5-4---5-4------o||
|-----------------------------------|-----------------5-----5-----5-5---||


Duration Legend
---------------
W - whole; H - half; Q - quarter; E - 8th; S - 16th; T - 32nd; X - 64th; a - acciaccatura
+ - note tied to previous; . - note dotted; .. - note double dotted
Uncapitalized letters represent notes that are staccato (1/2 duration)
Irregular groupings are notated above the duration line
Duration letters will always appear directly above the note/fret number it represents the
duration for.  Duration letters with no fret number below them represent rests.  Multi-
bar rests are notated in the form Wxn, where n is the number of bars to rest for.  Low
melody durations appear below the staff

Tablature Legend
----------------
 h   - hammer-on
 p   - pull-off
 b   - bend
 pb  - pre-bend
 r   - bend release (if no number after the r, then release immediately)
 /\  - slide into or out of (from/to "nowhere")
 s   - legato slide
 S   - shift slide
  - natural harmonic
[n]  - artificial harmonic
n(n) - tapped harmonic
 ~   - vibrato
 tr  - trill
 T   - tap
 TP  - trem. picking
 PM  - palm muting
\n/  - tremolo bar dip; n = amount to dip
 \n  - tremolo bar down
 n/  - tremolo bar up
/n\  - tremolo bar inverted dip
 =   - hold bend; also acts as connecting device for hammers/pulls
 <>  - volume swell (louder/softer)
 x   - on rhythm slash represents muted slash
 o   - on rhythm slash represents single note slash

Misc Legend
-----------
 |  - bar
||  - double bar
||o - repeat start
o|| - repeat end
*|  - double bar (ending)
 :  - bar (freetime)
 $  - Segno
 &  - Coda
Tempo markers -  = BPM(8/16=s8/s16), where s8 = swing 8ths, s16 = swing 16ths

Tap to rate this tab
 
# A B C D E F G H I J K L M N O P Q R S T U V W X Y Z